Oops, an error
Loading. Please wait.

Monster Tab

160 views 18 this week
no commentswrite comment
1 2 3 4 5
2 more votes to show rating
add to favorites
launch autoscroll
font size
0
reset
how to read this tab
guitar tuner
Autoscroll
slow
fast
+/-
esc
set tempo
stop
Help us to improve Ultimate-Guitar.com Take our survey!
×
Author
Difficulty
Tuning
novice
B F# B E G# C#
About this tab version
This a pretty simple version wich I came up with myself. It's not 100% accurate. If you can't tune your guitar to drop B you can use drop C#, take 2 steps lower for every fret and play the open power chords on the 10th fret. Was this info helpful? Yes No
-------------------------------------------------------------------------------
                           Monster - Starset
-------------------------------------------------------------------------------
Tabbed by: Bart Baart
Tuning: Drop B

[Verse One]
C#|------------------------|-----------------|
G#|------------------------|-----------------|
E |------------------------|-----------------|
B |-2--2--2--2----2--2--2--|-----------------|
F#|-2--2--2--2----2--2--2--|-----------------|
B |-2--2--2--2----2--2--2--|-----------------|

C#|------------------------|-----------------|
G#|------------------------|-----------------|
E |------------------------|-----------------|
B |-2--2--2--2----2--2--2--|-----------------|
F#|-2--2--2--2----2--2--2--|-----------------|
B |-2--2--2--2----2--2--2--|-----------------|

C#|-------------------------------|------------------------|
G#|-------------------------------|------------------------|
E |-------------------------------|------------------------|
B |-10--10--10--10----10--10--10--|-7--7--7--7----7--7--7--|
F#|-10--10--10--10----10--10--10--|-7--7--7--7----7--7--7--|
B |-10--10--10--10----10--10--10--|-7--7--7--7----7--7--7--| REPEAT 1X


[Pre-chorus]
C#|-------------------|-----------------|
G#|-------------------|-----------------|
E |-------------------|-----------------|
B |-------------------|-----------------|
F#|-------------------|-----------------|
B |-10----------------|-7---------------|

C#|------------------|-----------------|
G#|------------------|-----------------|
E |------------------|-----------------|
B |------------------|-----------------|
F#|------------------|-----------------|
B |-2----------------|-0---------------|



[Chorus]
C#|---------------------------------|-------------------------|
G#|---------------------------------|-------------------------|
E |---------------------------------|-------------------------|
B |-10--10--10--10--10--10--10--10--|-7--7--7--7--7--7--7--7--|
F#|-10--10--10--10--10--10--10--10--|-7--7--7--7--7--7--7--7--|
B |-10--10--10--10--10--10--10--10--|-7--7--7--7--7--7--7--7--|

C#|-------------------------|-------------------------|
G#|-------------------------|-------------------------|
E |-------------------------|-------------------------|
B |-2--2--2--2--2--2--2--2--|-0--0--0--0--0--0--0--0--|
F#|-2--2--2--2--2--2--2--2--|-0--0--0--0--0--0--0--0--|
B |-2--2--2--2--2--2--2--2--|-0--0--0--0--0--0--0--0--| REPEAT 2X


[Verse One]
C#|------------------------|-----------------|
G#|------------------------|-----------------|
E |------------------------|-----------------|
B |-2--2--2--2----2--2--2--|-----------------|
F#|-2--2--2--2----2--2--2--|-----------------|
B |-2--2--2--2----2--2--2--|-----------------|

C#|------------------------|-----------------|
G#|------------------------|-----------------|
E |------------------------|-----------------|
B |-2--2--2--2----2--2--2--|-----------------|
F#|-2--2--2--2----2--2--2--|-----------------|
B |-2--2--2--2----2--2--2--|-----------------|

C#|-------------------------------|------------------------|
G#|-------------------------------|------------------------|
E |-------------------------------|------------------------|
B |-10--10--10--10----10--10--10--|-7--7--7--7----7--7--7--|
F#|-10--10--10--10----10--10--10--|-7--7--7--7----7--7--7--|
B |-10--10--10--10----10--10--10--|-7--7--7--7----7--7--7--| REPEAT 1X
B |-10-x-10-x-10-x-10-x-10-x-10-x-10-x-10-x-|-7-x-7-x-7-x-7-x-7-x-7-x-7-x-7-x-| REPEAT 1X


[Pre-chorus]
C#|-------------------|-----------------|
G#|-------------------|-----------------|
E |-------------------|-----------------|
B |-------------------|-----------------|
F#|-------------------|-----------------|
B |-10----------------|-7---------------|

C#|------------------|-----------------|
G#|------------------|-----------------|
E |------------------|-----------------|
B |------------------|-----------------|
F#|------------------|-----------------|
B |-2----------------|-0---------------|


[Chorus]
C#|---------------------------------|-------------------------|
G#|---------------------------------|-------------------------|
E |---------------------------------|-------------------------|
B |-10--10--10--10--10--10--10--10--|-7--7--7--7--7--7--7--7--|
F#|-10--10--10--10--10--10--10--10--|-7--7--7--7--7--7--7--7--|
B |-10--10--10--10--10--10--10--10--|-7--7--7--7--7--7--7--7--|

C#|-------------------------|-------------------------|
G#|-------------------------|-------------------------|
E |-------------------------|-------------------------|
B |-2--2--2--2--2--2--2--2--|-0--0--0--0--0--0--0--0--|
F#|-2--2--2--2--2--2--2--2--|-0--0--0--0--0--0--0--0--|
B |-2--2--2--2--2--2--2--2--|-0--0--0--0--0--0--0--0--| REPEAT 2X


[Verse Two]
C#|------------------|------------------|
G#|------------------|------------------|
E |------------------|------------------|
B |------------------|------------------|
F#|------------------|------------------|
B |-7----------------|-10---------------|

C#|------------------|-----------------|
G#|------------------|-----------------|
E |------------------|-----------------|
B |------------------|-----------------|
F#|------------------|-----------------|
B |-2----------------|-0---------------|


[Verse Three]
C#|--------------------------|
G#|--------------------------|
E |--------------------------|
B |-10--x--x--x--x--x--x--x--|
F#|-10--x--x--x--x--x--x--x--|
B |-10--x--x--x--x--x--x--x--| REPEAT 3X


[Bridge]
C#|-------------------------|---------------------------------|
G#|-------------------------|---------------------------------|
E |-------------------------|---------------------------------|
B |-7--7--7--7--7--7--7--7--|-10--10--10--10--10--10--10--10--|
F#|-7--7--7--7--7--7--7--7--|-10--10--10--10--10--10--10--10--|
B |-7--7--7--7--7--7--7--7--|-10--10--10--10--10--10--10--10--|

C#|-------------------------|-------------------------|
G#|-------------------------|-------------------------|
E |-------------------------|-------------------------|
B |-2--2--2--2--2--2--2--2--|-0--0--0--0--0--0--0--0--|
F#|-2--2--2--2--2--2--2--2--|-0--0--0--0--0--0--0--0--|
B |-2--2--2--2--2--2--2--2--|-0--0--0--0--0--0--0--0--| REPEAT 1X


[Pre-chorus]
C#|-------------------|-----------------|
G#|-------------------|-----------------|
E |-------------------|-----------------|
B |-------------------|-----------------|
F#|-------------------|-----------------|
B |-10----------------|-7---------------|

C#|------------------|-----------------|
G#|------------------|-----------------|
E |------------------|-----------------|
B |------------------|-----------------|
F#|------------------|-----------------|
B |-2----------------|-0---------------|


[Chorus]
C#|---------------------------------|-------------------------|
G#|---------------------------------|-------------------------|
E |---------------------------------|-------------------------|
B |-10--10--10--10--10--10--10--10--|-7--7--7--7--7--7--7--7--|
F#|-10--10--10--10--10--10--10--10--|-7--7--7--7--7--7--7--7--|
B |-10--10--10--10--10--10--10--10--|-7--7--7--7--7--7--7--7--|

C#|-------------------------|-------------------------|
G#|-------------------------|-------------------------|
E |-------------------------|-------------------------|
B |-2--2--2--2--2--2--2--2--|-0--0--0--0--0--0--0--0--|
F#|-2--2--2--2--2--2--2--2--|-0--0--0--0--0--0--0--0--|
B |-2--2--2--2--2--2--2--2--|-0--0--0--0--0--0--0--0--| REPEAT 3X

***********************************

| x   Dead note

***********************************
Suggest correction
Give kudos to tab author, rate the tab!
1 2 3 4 5
comments
print report bad tab
guest
You may want to rate the tab now too:
select rating
Wanna post a correction for this tab? Suggest correction