Oops, an error
Loading. Please wait.

My Demons bass

version 1
version 1

Whole song

Interactive

by Starset
1,858 views 45 this week
1 commentread comment
1 2 3 4 5
x 5
add to favorites
×
Save as Personal and add changes to this tab that will be seen only by you. Learn more ›
×
You can save this tab as Personal to edit and correct it or add notes. All changes will be seen only by you. Learn more »
launch autoscroll
font size
0
reset
guitar tuner
edit
Autoscroll
slow
fast
+/-
esc
set tempo
stop
When I finished doing the chords for this song, I got to doing other songs.  Now I have decided to tab out the
bass for this song as well.  Here goes something ^^

The choruses all have single strum of notes, as well as the second verse and the solo.

The intro, first verse, and pre-verse all are multi/double strumming notes.

I hope the timing is alright for the song.

-Sharky

------------------------------------------------------------------------------------------------------------

Intro: G|-----------------------------------------------------------------|
       D|-----------------------------------------------------------------|
       A|-----------------------------------------------------------------|
       E|-1-1-1-1-1-1-1-1-1-1-1-1-1-1-1-1-1-1-1-1-1-1-1-1-1-1-1-1-1-1-1-1-|

Verse: G|-----------------------------------------------------------------|
       D|-----------------------------------------------------------------|
       A|---------------------------------x-x-x-x-x-x-x-x-x-x-x-x-x-x-x-x-|
       E|-x-x-x-x-x-x-x-x-x-x-x-x-x-x-x-x---------------------------------|

       G|-----------------------------------------------------------------|
       D|-----------------------------------------------------------------|
       A|-x-x-x-x-x-x-x-x-x-x-x-x-x-x-x-x-x-x-x-x-x-x-x-x-x-x-x-x-x-x-x-x-|
       E|-----------------------------------------------------------------|

       G|-----------------------------------------------------------------|
       D|-----------------------------------------------------------------|
       A|---------------------------------6-6-6-6-6-6-6-6-6-6-6-6-6-6-6-6-|
       E|-1-1-1-1-1-1-1-1-1-1-1-1-1-1-1-1---------------------------------|

       G|-----------------------------------------------------------------|
       D|-----------------------------------------------------------------|
       A|-4-4-4-4-4-4-4-4-4-4-4-4-4-4-4-4-6-6-6-6-6-6-6-6-6-6-6-6-6-6-6-6-|
       E|-----------------------------------------------------------------|

Pre-Chorus: G|-------------|
            D|-------------|
            A|-------------|
            E|-1~-3~-4~-6~-|

Chorus: G|-----------------------------------------------------------------|
        D|-----------------------------------------------------------------| X2
        A|-4-4-4-44-44-4-4-6-6-6-66-66-6-6-8-8-8-88-88-8-8-8-8-8-88-88-8-6-|
        E|-----------------------------------------------------------------|

        G|---------------------------|
        D|---------------------------|
        A|-4-4-4-44-44-4-4-6-6-6-66~-|
        E|---------------------------|

Pre-Verse: G|---------------------------------|
           D|---------------------------------|
           A|---------------------------------|
           E|-1-1-1-1-1-1-1-1-1-1-1-1-1-1-1-1-|

Verse: G|-----------------------------------------------------------------|
       D|---------------------5-------5-----------------------5-------5---|
       A|-----------------6-8---8-6-8---8-4-6-8-6-4-6-8-6-6-8---8-6-8---8-|
       E|-1-3-4-3-1-3-4-3-------------------------------------------------|

       G|-------------------------------------------------------------|
       D|---------------------5-------5----------------------5~-6~-8~-|
       A|-----------------6-8---8-6-8---8-4-6-8-6-4-6-8-6-8~----------|
       E|-1-3-4-3-1-3-4-3---------------------------------------------|

Chorus: G|-----------------------------------------------------------------|
        D|-----------------------------------------------------------------| X2
        A|-4-4-4-44-44-4-4-6-6-6-66-66-6-6-8-8-8-88-88-8-8-8-8-8-88-88-8-6-|
        E|-----------------------------------------------------------------|

        G|-----------------------------------|
        D|-----------------------------------|
        A|-4-4-4-44-44-4-4-3-3-3-336-6-6-66~-|
        E|-----------------------------------|

Solo: G|-----------------------------------------------------------------|
      D|-----------------------------------------------------------------|
      A|-8-8-8-8-8-8-8-8-6-6-6-6-6-6-6-6-4-4-4-4-4-4-4-4-3-3-3-3-6-6-6-6-|
      E|-----------------------------------------------------------------|

      G|----------------------------------------------------------------|
      D|----------------------------------------------------------5~-6~-|
      A|-8-8-8-8-8-8-8-8-6-6-6-6-6-6-6-6-4-4-4-4-4-4-4-4-6~-6~-8~-------|
      E|----------------------------------------------------------------|

Bridge: G|-------------------------|
        D|-------------------------| X4
        A|-4~----6~----8~----6~-4~-|
        E|----4~----6~----8~-------|

Chorus: G|-----------------------------------------------------------------|
        D|-----------------------------------------------------------------| X2
        A|-4-4-4-44-44-4-4-6-6-6-66-66-6-6-8-8-8-88-88-8-8-8-8-8-88-88-8-6-|
        E|-----------------------------------------------------------------|

        G|---------------------------------|
        D|---------------------------------|
        A|-4-4-4-44-44-4-4-6-6-6-66-66-6-6-|
        E|---------------------------------|

        G|-----------------------------------------------------------------|
        D|-----------------------------------------------------------------| X2
        A|-4-4-4-44-44-4-4-6-6-6-66-66-6-6-8-8-8-88-88-8-8-8-8-8-88-88-8-6-|
        E|-----------------------------------------------------------------|

Outro: G|---------------------------|
       D|---------------------------|
       A|-4-4-4-44-44-4-4-6-6-6-66~-|
       E|---------------------------|

-------------------------------------------------------------------------------------------------------------
Suggest correction
Creating personal tab
Creating personal tab
You can edit any tab online and save it as your Personal.

You can edit, replace or remove any tab part or add personal notes – all changes will be seen only by you.

Personal tabs can be accessed anytime from any device, even offline.
Learn more »
comments
print report bad tab
1 comment total.
0 reply
Boomkin40 10 Oct 17, 2016 12:07 AM

Can you tab Halo and/or Carnivore? :D

guest
You may want to rate the tab now too:
select rating
Wanna post a correction for this tab? Suggest correction