Oops, an error
Loading. Please wait.

My Demons chords

version 3
version 3

Whole song

  • Again, some of the lyrics have some chords playing... Show more
  • The song was originally played with 2 guitars. Thi... Show more

Interactive

by Starset
1,918 views 9 this week
no commentswrite comment
1 2 3 4 5
2 more votes to show rating
add to favorites
×
Save as Personal and add changes to this tab that will be seen only by you. Learn more ›
×
You can save this tab as Personal to edit and correct it or add notes. All changes will be seen only by you. Learn more »
launch autoscroll
font size
0
reset
transpose
0
reset
display chords
guitar tuner
edit
Autoscroll
slow
fast
+/-
esc
set tempo
stop
About this tab version
Again, some of the lyrics have some chords playing directly on them, others have them "floating" because the chords still continue as opposed to just one strum from them. The song itself provides that feeling for me. If there are major issues, I will be glad to fix them IF they make actual sense instead of the fact that the lyrics are timed off from the chords sometimes. Was this info helpful? Yes No
Strumming
There is no strumming pattern for this song yet. and get +5 IQ
Intro:    F
       e|---------------------------------------|
       B|---------------------------------------|
       G|---------------------------1-----------|
       D|-3333333333333333333333333---3-1-------|
       A|-3333333333333333333333333-------3-1---|
       E|-1111111111111111111111111-----------4-|

Verse:    F                Eb               C#               Eb
       e|---------------------------------------------------------------------|
       B|---------------------------------------------------------------------|
       G|------------------8888888888888888-6666666666666666-8888888888888888-|
       D|-3333333333333333-8888888888888888-6666666666666666-8888888888888888-|
       A|-3333333333333333-6666666666666666-4444444444444444-6666666666666666-|
       E|-1111111111111111----------------------------------------------------|

          Mayday, mayday! The ship is slowly sinking. 

          They think I'm crazy, but they don't know the feeling.

          F                Eb               C#               Eb
       e|---------------------------------------------------------------------------------|
       B|---------------------------------------------------------------------------------|
       G|------------------8888888888888888-6666666666666666-8888888888888888-------------|
       D|-3333333333333333-8888888888888888-6666666666666666-8888888888888888-3~-5~-6~-8~-|
       A|-3333333333333333-6666666666666666-4444444444444444-6666666666666666-------------|
       E|-1111111111111111----------------------------------------------------------------|

          They're all around me, circling like vultures. 

          They wanna break me and wash away my colors (wash away my co-lors).

Chorus:    C#              Eb              F                       Eb
        e|-----------------------------------------------------------------|
        B|-----------------------------------------------------------------|
        G|-6-6-6-6-6-6-6-6-8-8-8-8-8-8-8-8-------------------------8-8-8-8-| X2
        D|-6-6-6-6-6-6-6-6-8-8-8-8-8-8-8-8-3-3-3-3-3-3-3-3-3-3-3-3-8-8-8-8-|
        A|-4-4-4-4-4-4-4-4-6-6-6-6-6-6-6-6-3-3-3-3-3-3-3-3-3-3-3-3-6-6-6-6-|
        E|---------------------------------1-1-1-1-1-1-1-1-1-1-1-1---------|

           Take me high and I'll sing "Oh you, make everything o-kay (o-kay, okay. 'Kay, o-kay o-kay)

           We are one and the same. You take all of the pain a-way (a-way, away. 'Way, a-way a-way)

           C#              Eb           F
        e|-----------------------------------------------|
        B|-----------------------------------------------|
        G|-6-6-6-6-6-6-6-6-8-8-8-8-8-x~------------------|
        D|-6-6-6-6-6-6-6-6-8-8-8-8-8-x~-3333333333333333-|
        A|-4-4-4-4-4-4-4-4-6-6-6-6-6-x~-3333333333333333-|
        E|------------------------------1111111111111111-|

           Save me, if I   become...my demons.


Verse: e|-------------------------------------------------------------|
       B|-------------------------------------------------------------|
       G|--------------------8------8-------6------6-------8------8---|
       D|-----3------3-----8---8~-----8---6---6~-----6---8---6~-----8-|
       A|---3---3~-----3-6--------6-----4--------4-----6--------6-----|
       E|-1--------1--------------------------------------------------|

          I cannot stop this sickness taking over. It takes control and drags me into nowhere.

       e|------------------------------------------------------------|
       B|------------------------------------------------------------|
       G|--------------------8------8-------6------6-----------------|
       D|-----3------3-----8---8~-----8---6---6~-----6---------------|
       A|---3---3~-----3-6--------6-----4--------4-----6~-8~-10~-11~-|
       E|-1--------1-------------------------------------------------|
          
          I need your help, I can't fight this forever. I know you're watching, I can feel you out there.


Chorus:    C#              Eb              F                       Eb
        e|-----------------------------------------------------------------|
        B|-----------------------------------------------------------------|
        G|-6-6-6-6-6-6-6-6-8-8-8-8-8-8-8-8-------------------------8-8-8-8-| X2
        D|-6-6-6-6-6-6-6-6-8-8-8-8-8-8-8-8-3-3-3-3-3-3-3-3-3-3-3-3-8-8-8-8-|
        A|-4-4-4-4-4-4-4-4-6-6-6-6-6-6-6-6-3-3-3-3-3-3-3-3-3-3-3-3-6-6-6-6-|
        E|---------------------------------1-1-1-1-1-1-1-1-1-1-1-1---------|

           Take me high and I'll sing "Oh you, make everything o-kay (o-kay, okay. 'Kay, o-kay o-kay)

           We are one and the same. You take all of the pain a-way (a-way, away. 'Way, a-way a-way)

           C#              C       Eb
        e|---------------------------------|
        B|---------------------------------|
        G|-6-6-6-6-6-6-6-6-5-5-5-5-8-8-8-8-|
        D|-6-6-6-6-6-6-6-6-5-5-5-5-8-8-8-8-|
        A|-4-4-4-4-4-4-4-4-3-3-3-3-6-6-6-6-|
        E|---------------------------------|

           Save me, if I become...my demons


Bridge:    F               Eb              C#              C       C#  Eb
        e|-----------------------------------------------------------------|
        B|-----------------------------------------------------------------|
        G|-----------------8-8-8-8-8-8-8-8-6-6-6-6-6-6-6-6-5-5-5-5-6-6-8-8-|
        D|-3-3-3-3-3-3-3-3-8-8-8-8-8-8-8-8-6-6-6-6-6-6-6-6-5-5-5-5-6-6-8-8-|
        A|-3-3-3-3-3-3-3-3-6-6-6-6-6-6-6-6-4-4-4-4-4-4-4-4-3-3-3-3-4-4-6-6-|
        E|-1-1-1-1-1-1-1-1-------------------------------------------------|

           Take me o-ver, the walls be-low. Fly for-ever, don't let me go

           F               Eb              C#              Eb
        e|------------------------------------------------------------------------|
        B|------------------------------------------------------------------------|
        G|-----------------8-8-8-8-8-8-8-8-6-6-6-6-6-6-6-6-8~---------------------|
        D|-3-3-3-3-3-3-3-3-8-8-8-8-8-8-8-8-6-6-6-6-6-6-6-6-8~---------------------|
        A|-3-3-3-3-3-3-3-3-6-6-6-6-6-6-6-6-4-4-4-4-4-4-4-4-6~-8888----------------|
        E|-1-1-1-1-1-1-1-1-----------------------------------------1111-3333-6666-|
 
           I need a sa-vior, to heal my pain when I become my worst enemy: the enemy


Pre-Chorus:    |---------P.M.----------|
            e|---------------------------|
            B|---------------------------|
            G|-6~----8~------------------| X4
            D|-6~----8~----3~------------|
            A|-4~----6~----3~-------3-4~-|
            E|----4~----6~-1~-4-3-4------|
            
               Take me high and I'll sing. You make everything o-kay.

               We are one in the same. You take all of the pain a-way.


Outro:     C#              Eb              F                       Eb
        e|-----------------------------------------------------------------|
        B|-----------------------------------------------------------------|
        G|-6-6-6-6-6-6-6-6-8-8-8-8-8-8-8-8-------------------------8-8-8-8-| X2
        D|-6-6-6-6-6-6-6-6-8-8-8-8-8-8-8-8-3-3-3-3-3-3-3-3-3-3-3-3-8-8-8-8-|
        A|-4-4-4-4-4-4-4-4-6-6-6-6-6-6-6-6-3-3-3-3-3-3-3-3-3-3-3-3-6-6-6-6-|
        E|---------------------------------1-1-1-1-1-1-1-1-1-1-1-1---------|

           Take me high and I'll sing "Oh you, make everything o-kay (o-kay, okay. 'Kay, o-kay o-kay)

           We are one and the same. You take all of the pain a-way (a-way, away. 'Way, a-way a-way)

           C#              Eb
        e|---------------------------|
        B|---------------------------|
        G|-6-6-6-6-6-6-6-6-8-8-8-8-8-|
        D|-6-6-6-6-6-6-6-6-8-8-8-8-8-|
        A|-4-4-4-4-4-4-4-4-6-6-6-6-6-|
        E|---------------------------|

           Save me, if I   become...my demons.

           C#              Eb        F                           Eb
        e|-----------------------------------------------------------|
        B|-----------------------------------------------------------|
        G|-6-6-6-6-6-6-6-6-8-8-8-8-8-----------------------------8-8-|
        D|-6-6-6-6-6-6-6-6-8-8-8-8-8-3-3-3-3-3-3-3-3-3-3-3-3-3-3-8-8-|
        A|-4-4-4-4-4-4-4-4-6-6-6-6-6-3-3-3-3-3-3-3-3-3-3-3-3-3-3-6-6-|
        E|---------------------------1-1-1-1-1-1-1-1-1-1-1-1-1-1-----|

          (Take me high and I'll sing "Oh you make") my demons (o-kay o-kay okay. 'Kay, o-kay)

          My demons (We are one and the same. You make) my demons (way a-way away. 'Way a-way)

            C#              Eb
        e|---------------------------|
        B|---------------------------|
        G|-6-6-6-6-6-6-6-6-8-8-8-8-8-|
        D|-6-6-6-6-6-6-6-6-8-8-8-8-8-|
        A|-4-4-4-4-4-4-4-4-6-6-6-6-6-|
        E|---------------------------|

           Save me, if I   become...my demons.

Requested by many where I happen to be and back home, the song is a very nice, simple piece.
Hope you all enjoy it. Definitely an improvement in this format than the previous way I had it typed out.


P.M. means to Palm Mute
~ means held or extended note
x means no chord

            
            
Suggest correction
Creating personal tab
Creating personal tab
You can edit any tab online and save it as your Personal.

You can edit, replace or remove any tab part or add personal notes – all changes will be seen only by you.

Personal tabs can be accessed anytime from any device, even offline.
Learn more »
Give kudos to tab author, rate the tab!
1 2 3 4 5
comments
print report bad tab
guest
You may want to rate the tab now too:
select rating
Wanna post a correction for this tab? Suggest correction