Oops, an error
Loading. Please wait.

Get Over It Tab

223 views 1 this week
4 commentsread comments
1 2 3 4 5
please rate
add to favorites
launch autoscroll
font size
0
reset
how to read this tab
guitar tuner
Autoscroll
slow
fast
+/-
esc
set tempo
stop
Help us to improve Ultimate-Guitar.com Take our survey!
×
Contributor
Difficulty
Tuning
zache57 324
novice
D A D G B E
-------------------------------------------------------------------------------
                             Get Over It  - Start Trouble
-------------------------------------------------------------------------------
Tabbed by: Zach Evans (zache57)
Email:zache57@suddenlink.net

Tuning: Drop D



Intro X2

e|---------------------------------------------------------------------------|
B|---------------------------------------------------------------------------|
G|---3--3-333-5--5-5555-----------6-6-6--------------------------------------|
D|---3--3-333-5--5-5555-4--4-444--6-6-6-6-6-66-------------------------------|
A|---1--1-111-3--3-3333-4--4-444--4-4-4-6-6-66-------------------------------|
E|----------------------4--4-444--------6-6-66-------------------------------|


Verse X2

e|---------------------------------------------------------------------------|
B|---------------------------------------------------------------------------|
G|---33-3-33-3---------------------------------------------------------------|
D|---33-3-33-3-66-6-66-6-44-4-44-4-33-3-33-3---------------------------------|
A|---11-1-11-1-66-6-66-6-44-4-44-4-33-3-33-3---------------------------------|
E|-------------66-6-66-6-44-4-44-4-33-3-33-3---------------------------------|
     **   **   **   **   **   **   **   ** 


Pre Chorus X4

e|---------------------------------------------------------------------------|
B|---------------------------------------------------------------------------|
G|---------------------------------------------------------------------------|
D|-4-4-4444-33-6666----------------------------------------------------------|
A|-4-4-4444-33-6666----------------------------------------------------------|
E|-4-4-4444-33-6666----------------------------------------------------------|


Chrous X2 (Those are ones(1) not elevens(11))
e|---------------------------------------------------------------------------|
B|---------------------------------------------------------------------------|
G|----------------------------------------------------66666666---------------|
D|-4444444444444444-1111111111111111-4444444444444444-xxxxxxxx-66666666------|
A|-4444444444444444-1111111111111111-4444444444444444-44444444-66666666------|
E|-4444444444444444-1111111111111111-4444444444444444----------66666666------|


pre verse X2
e|---------------------------------------------------------------------------|
B|---------------------------------------------------------------------------|
G|-3-3-333-5-5-555---------6-6-6---------------------------------------------|
D|-3-3-333-5-5-555-4-4-444-6-6-6--6-6-6--------------------------------------|
A|-1-1-111-3-3-333-4-4-444-4-4-4--6-6-6--------------------------------------|
E|-----------------4-4-444--------6-6-6--------------------------------------|


Verse X2

e|---------------------------------------------------------------------------|
B|---------------------------------------------------------------------------|
G|---33-3-33-3---------------------------------------------------------------|
D|---33-3-33-3-66-6-66-6-44-4-44-4-33-3-33-3---------------------------------|
A|---11-1-11-1-66-6-66-6-44-4-44-4-33-3-33-3---------------------------------|
E|-------------66-6-66-6-44-4-44-4-33-3-33-3---------------------------------|
     **   **   **   **   **   **   **   ** 


Pre Chorus X4

e|---------------------------------------------------------------------------|
B|---------------------------------------------------------------------------|
G|---------------------------------------------------------------------------|
D|-4-4-4444-33-6666----------------------------------------------------------|
A|-4-4-4444-33-6666----------------------------------------------------------|
E|-4-4-4444-33-6666----------------------------------------------------------|


Chrous X2 (Those are ones(1) not elevens(11))
e|---------------------------------------------------------------------------|
B|---------------------------------------------------------------------------|
G|----------------------------------------------------66666666---------------|
D|-4444444444444444-1111111111111111-4444444444444444-66666666-66666666------|
A|-4444444444444444-1111111111111111-4444444444444444-44444444-66666666------|
E|-4444444444444444-1111111111111111-4444444444444444----------66666666------|

solo Guitar 1 x2
e|--444444--------------------------------------------------------------------|
B|------2222222--4444444---6666667642----------------------------------------|
G|---------------------------------------------------------------------------|
D|---------------------------------------------------------------------------|
A|---------------------------------------------------------------------------|
E|---------------------------------------------------------------------------|
Guitar 2 x2
e|---------------------------------------------------------------------------|
B|---------------------------------------------------------------------------|
G|-333333--------------------------------------------------------------------|
D|-333333--44444444--66666--------88888----play 8's 2nd time only------------|
A|-111111--44444444--66666--------88888--------------------------------------|
E|---------44444444--66666--------88888--------------------------------------|

bridge x4
e|--4-4-4-4-4-4-4-4-4-4-4-4-2-2-2-2-2-1-1-1-1-1------------------------------|
B|---2-2-2-2-2-2-2-2-2-2-2-2-2-2-2-2-2-2-2-2-2-2-----------------------------|
G|---------------------------------------------------------------------------|
D|---------------------------------------------------------------------------|
A|---------------------------------------------------------------------------|
E|---------------------------------------------------------------------------|

Outro x2
e|---------------------------------------------------------------------------|
B|---------------------------------------------------------------------------|
G|----------------------------------------------------66666666---------------|
D|-4444444444444444-1111111111111111-4444444444444444-66666666-66666666------|
A|-4444444444444444-1111111111111111-4444444444444444-44444444-66666666------|
E|-4444444444444444-1111111111111111-4444444444444444----------66666666------|

then play this twice
e|---------------------------------------------------------------------------|
B|---------------------------------------------------------------------------|
G|-3-3-333-5-5-555---------6-6-6--------------------------------------------|
D|-3-3-333-5-5-555-4-4-444-6-6-6--6-6-6----------end on-3--------------------|
A|-1-1-111-3-3-333-4-4-444-4-4-4--6-6-6-----------------3--------------------|
E|-----------------4-4-444--------6-6-6-----------------1--------------------|






| /  slide up
| \  slide down
| h  hammer-on
| p  pull-off
| ~  vibrato
| +  harmonic
| *  Mute note
===============================================================================
Suggest correction What's this?
You can suggest a correction to this tab. Community and Mods will review your correction and vote to approve or reject it.
comments
We did not receive enough feedback on this tab! Please rate:
print report bad tab
1 2 3 4 5
4 comments total. Showing first comments.
0 reply
dutchboy1212 13 wrote on November 7 2010, 11:13 pm

this is all wrong it should be capoed on the 9th fret

0 reply
dutchboy1212 13 wrote on November 30 2010, 05:14 pm

please change this

the intro, capoed on 9th is supposed to be 777

4 5 99
112

0 reply
dutchboy1212 13 wrote on November 30 2010, 05:15 pm

you need to change this immediatley, you are not being a responsible Ultimate-Guitar.com user

I want to post or [tab]
guest
You may want to rate the tab now too:
select rating
Please do not post tabs as comments. Select "correction" instead!