Oops, an error
Loading. Please wait.

All Or Nothing tab

version 1
version 1

Whole song

Interactive

2,566 views 33 this week
no commentswrite comment
1 2 3 4 5
x 5
add to favorites
×
Save as Personal and add changes to this tab that will be seen only by you. Learn more ›
×
You can save this tab as Personal to edit and correct it or add notes. All changes will be seen only by you. Learn more »
launch autoscroll
font size
0
reset
how to read this tab
guitar tuner
edit
Autoscroll
slow
fast
+/-
esc
set tempo
stop
------------------------------------------------------------------------------- 
                           State Champs - All Or Nothing
------------------------------------------------------------------------------- 

Tabbed by: scottismad
Email: scott.simpson@hotmail.com.au
Tuning: Drop C#




Intro
0:03 - Lead
D#|-------------3-----------------------3-------------------------------------|
A#|-------1-----------1-----1-----1-----------1-----1-------------------------|
F#|----2-----2-----------2----------------------------------------------------|
C#|----------------------------3-----3-----------3----------------------------|
G#|---------------------------------------------------------------------------|
C#|---------------------------------------------------------------------------|

D#|-------------3-----------------------3-------------------------------------|
A#|-------1-----------1-----1-----1-----------1-----1-------------------------|
F#|---------------------------------------------------------------------------|
C#|---------------------------------------------------------------------------|  x4
G#|----3-----3-----------3-----2-----2-----------2----------------------------|
C#|---------------------------------------------------------------------------|

D#|-------------3-----------------------3-------------------------------------|
A#|-------1-----------1-----1-----1-----------1-----1-------------------------|
F#|----2-----2-----------2----------------------------------------------------|
C#|----------------------------3-----3-----------3----------------------------|
G#|---------------------------------------------------------------------------|
C#|---------------------------------------------------------------------------|

D#|---------------------------------------------------------------------------|
A#|---------------------------------------------------------------------------|
F#|----5--5--5--7--7--7--4--4--4--4--4--4--5--4--2----------------------------|
C#|----x--x--x--x--x--x--x--x--x--x--x--x--x--x--x----------------------------|
G#|----3--3--3--5--5--5--2--2--2--2--2--2--3--2--0----------------------------|
C#|---------------------------------------------------------------------------|




Pre Chorus
0:22 - Rhythm
D#|---------------------------------------------------------------------------|
A#|---------------------------------------------------------------------------|
F#|---------------------------------------------------------------------------|
C#|-----------------7----------------------3--------3-------------------------|
G#|-------7-7-7-7---7------(7\)---3--3-----3-----3--3-------------------------|
C#|-------7-7-7-7---7------(7\)---3--3-----3-----3--3-------------------------|
          * * * *                 *  *           *
D#|---------------------------------------------------------------------------|
A#|---------------------------------------------------------------------------|
F#|---------------------------------------------------------------------------|
C#|-----------------10---------------------5--------5-------------------------|
G#|-------10--10----10----(10\)---5--5-----5-----5--5-------------------------|
C#|-------10--10----10----(10\)---5--5-----5-----5--5-------------------------|
          *  *                    *  *           *
D#|---------------------------------------------------------------------------|
A#|---------------------------------------------------------------------------|
F#|---------------------------------------------------------------------------|
C#|-----------------7----------------------3--------3-------------------------|
G#|-------7-7-7-7---7------(7\)---3--3-----3-----3--3-------------------------|
C#|-------7-7-7-7---7------(7\)---3--3-----3-----3--3-------------------------|
          * * * *                 *  *           *

D#|---------------------------------------------------------------------------|
A#|---------------------------------------------------------------------------|
F#|---------------------------------------------------------------------------|
C#|----5-----------------5--------------5--5--5--5--5-------------------------|
G#|----5-----5--5-----5--5-----5--5-----5--5--5--5--5-------------------------|
C#|----5-----5--5-----5--5-----5--5-----5--5--5--5--5-------------------------|
             *  *     *        *  *




Chorus
0:35 - Rhythm
D#|----0-----------------------8----------------------------------------------|
A#|----1-----------------------8----------------------------------------------|
F#|----x-----------------------5----------------------------------------------|
C#|----3----------------------------------------------------------------------|
G#|---------------------------------------------------------------------------|
C#|---------------------------------------------------------------------------|

D#|----3-----------------------7----------------------------------------------|
A#|----5-----------------------5----------------------------------------------|
F#|----0-----------------------0----------------------------------------------|
C#|---------------------------------------------------------------------------|
G#|---------------------------------------------------------------------------|
C#|---------------------------------------------------------------------------|

D#|----0-----------------------8----------------------------------------------|
A#|----1-----------------------8----------------------------------------------|
F#|----x-----------------------5----------------------------------------------|
C#|----3----------------------------------------------------------------------|
G#|---------------------------------------------------------------------------|
C#|---------------------------------------------------------------------------|

D#|----3----------------------------------------------------------------------|
A#|----5----------------------------------------------------------------------|
F#|----0----------------------------------------------------------------------|
C#|---------------------------------------------------------------------------|
G#|---------------------------------------------------------------------------|
C#|---------------------------------------------------------------------------|


0:48 - Rhythm
D#|---------------------------------------------------------------------------|
A#|---------------------------------------------------------------------------|
F#|---------------------------------------------------------------------------|
C#|---------------------------------------------------------------------------|
G#|----3--3--3--3--3--3--3--3--7--7--7--7--7--7--7--7-------------------------|
C#|----3--3--3--3--3--3--3--3--7--7--7--7--7--7--7--7-------------------------|
       *  *  *  *  *  *  *  *  *  *  *  *  *  *  *  *
D#|---------------------------------------------------------------------------|
A#|---------------------------------------------------------------------------|
F#|---------------------------------------------------------------------------|
C#|---------------------------------------------------------------------------|
G#|----10-10-10-10-10-10-10-10-5--5--5--5--5--5--5--5-------------------------|
C#|----10-10-10-10-10-10-10-10-5--5--5--5--5--5--5--5-------------------------|
       *  *  *  *  *  *  *  *  *  *  *  *  *  *  *  *
D#|---------------------------------------------------------------------------|
A#|---------------------------------------------------------------------------|
F#|---------------------------------------------------------------------------|
C#|---------------------------------------------------------------------------|
G#|----3--3--3--3--3--3--3--3--7--7--7--7--7--7--7--7-------------------------|
C#|----3--3--3--3--3--3--3--3--7--7--7--7--7--7--7--7-------------------------|
       *  *  *  *  *  *  *  *  *  *  *  *  *  *  *  *
D#|---------------------------------------------------------------------------|
A#|---------------------------------------------------------------------------|
F#|---------------------------------------------------------------------------|
C#|---------------------------------------------------------------------------|
G#|----5--5--5--5--5--5--5--5--5--5--5--5--5----------------------------------|
C#|----5--5--5--5--5--5--5--5--5--5--5--5--5----------------------------------|
       *  *  *  *
      (slowly ease off palm mutes)

0:48 - Lead
D#|-------------3-----------------------8-------------------------------------|
A#|-------1-----------1-----------5-----------5-------------------------------|
F#|----0-----0--------------0--0-----0--------------0-------------------------|
C#|---------------------------------------------------------------------------|
G#|---------------------------------------------------------------------------|
C#|---------------------------------------------------------------------------|

D#|-------------3-----------------------3-------------------------------------|
A#|-------1-----------1-----------1-----------1-------------------------------|
F#|----0-----0--------------0--0-----0--------------0-------------------------|
C#|---------------------------------------------------------------------------|
G#|---------------------------------------------------------------------------|
C#|---------------------------------------------------------------------------|

D#|-------------0-----------------------8-------------------------------------|
A#|-------1-----------1-----------5-----------5-------------------------------|
F#|----0-----0--------------0--0-----0--------------0-------------------------|
C#|---------------------------------------------------------------------------|
G#|---------------------------------------------------------------------------|
C#|---------------------------------------------------------------------------|

D#|----3--3--3--3--3--3--3--3--3--3--3--3--3----------------------------------|
A#|----1--1--1--1--1--1--1--1--1--1--1--1--1----------------------------------|
F#|----0--0--0--0--0--0--0--0--0--0--0--0--0----------------------------------|
C#|---------------------------------------------------------------------------|
G#|---------------------------------------------------------------------------|
C#|---------------------------------------------------------------------------|





Verse
Lead - 1:01

D#|-------------3-----------------------3-------------------------------------|
A#|-------1-----------1-----1-----1-----------1-----1-------------------------|
F#|----2-----2-----------2----------------------------------------------------|
C#|----------------------------3-----3-----------3----------------------------|
G#|---------------------------------------------------------------------------|
C#|---------------------------------------------------------------------------|

D#|-------------3-----------------------3-------------------------------------|
A#|-------1-----------1-----1-----1-----------1-----1-------------------------|
F#|---------------------------------------------------------------------------|
C#|---------------------------------------------------------------------------|
G#|----3-----3-----------3-----2-----2-----------2----------------------------|
C#|---------------------------------------------------------------------------|


*Short Delay
D#|-------------3-----------------------3-------------------------------------|
A#|-------1-----------1-----1-----1-----------1-----1-------------------------|
F#|----2-----2-----------2----------------------------------------------------|
C#|----------------------------3-----3-----------3----------------------------|
G#|---------------------------------------------------------------------------|
C#|---------------------------------------------------------------------------|
       *  *  *  *     *  *  *  *  *  *  *     *  *  *     
D#|-------------3-----------------------3-------------------------------------|
A#|-------1-----------1-----1-----1-----------1-----1-------------------------|
F#|---------------------------------------------------------------------------|
C#|---------------------------------------------------------------------------|  x2
G#|----3-----3-----------3-----2-----2-----------2----------------------------|
C#|---------------------------------------------------------------------------|
       *  *  *  *     *  *  *  *  *  *  *     *  *  *    


1:07 - Extra Lead
D#|---------------------------------------------------------------------------|
A#|---------------------------------------------------------------------------|
F#|---------------------------------------------------------------------------|
C#|----------------------------------------------5----------------------------|
G#|---------------------------------------------------------------------------|
C#|---------------------------------------------------------------------------|

D#|---------------------------------------------------------------------------|
A#|---------------------------------------------------------------------------|
F#|---------------------------------------------------------------------------|
C#|----5-/7-------------------------------------------------------------------|
G#|---------------------------------------------------------------------------|
C#|---------------------------------------------------------------------------|


1:13
D#|---------------------------------------------------------------------------|
A#|---------------------------------------------------------------------------|
F#|---------------------------------------------------------------------------|
C#|-------9--9--10-10/9--9-\5--5-/7-------------------------------------------|
G#|---------------------------------------------------------------------------|
C#|---------------------------------------------------------------------------|

D#|---------------------------------------------------------------------------|
A#|---------------------------------------------------------------------------|
F#|---------------------------------------------------------------------------|
C#|-----------------------(7)/-5----------------------------------------------|
G#|---------------------------------------------------------------------------|
C#|---------------------------------------------------------------------------|




Pre Chorus
1:21 - Rhythm
D#|---------------------------------------------------------------------------|
A#|---------------------------------------------------------------------------|
F#|---------------------------------------------------------------------------|
C#|-----------------7----------------------3--------3-------------------------|
G#|-------7-7-7-7---7------(7\)---3--3-----3-----3--3-------------------------|
C#|-------7-7-7-7---7------(7\)---3--3-----3-----3--3-------------------------|
          * * * *                  *  *           *
D#|---------------------------------------------------------------------------|
A#|---------------------------------------------------------------------------|
F#|---------------------------------------------------------------------------|
C#|-----------------10---------------------5--------5-------------------------|
G#|-------10--10----10----(10\)---5--5-----5-----5--5-------------------------|
C#|-------10--10----10----(10\)---5--5-----5-----5--5-------------------------|
          *  *                     *  *           *
D#|---------------------------------------------------------------------------|
A#|---------------------------------------------------------------------------|
F#|---------------------------------------------------------------------------|
C#|-----------------7----------------------3--------3-------------------------|
G#|-------7-7-7-7---7------(7\)---3--3-----3-----3--3-------------------------|
C#|-------7-7-7-7---7------(7\)---3--3-----3-----3--3-------------------------|
          * * * *                  *  *           *

D#|---------------------------------------------------------------------------|
A#|---------------------------------------------------------------------------|
F#|---------------------------------------------------------------------------|
C#|----5-----------------5--------------5--5--5--5--5-------------------------|
G#|----5-----5--5-----5--5-----5--5-----5--5--5--5--5-------------------------|
C#|----5-----5--5-----5--5-----5--5-----5--5--5--5--5-------------------------|
             *  *     *        *  *

1:21 - Lead
D#|-------------3-----------------------3-------------------------------------|
A#|-------1-----------1-----1-----1-----------1-----1-------------------------|
F#|----2-----2-----------2----------------------------------------------------|
C#|----------------------------3-----3-----------3----------------------------|
G#|---------------------------------------------------------------------------|
C#|---------------------------------------------------------------------------|

D#|-------------3-----------------------3-------------------------------------|
A#|-------1-----------1-----1-----1-----------1-----1-------------------------|
F#|---------------------------------------------------------------------------|
C#|---------------------------------------------------------------------------| 
G#|----3-----3-----------3-----2-----2-----------2----------------------------|
C#|---------------------------------------------------------------------------|

D#|-------------3-----------------------3-------------------------------------|
A#|-------1-----------1-----1-----1-----------1-----1-------------------------|
F#|----2-----2-----------2----------------------------------------------------|
C#|----------------------------3-----3-----------3----------------------------|
G#|---------------------------------------------------------------------------|
C#|---------------------------------------------------------------------------|

D#|---------------------------------------------------------------------------|
A#|---------------------------------------------------------------------------|
F#|----5--5--5--7--7--7--4--4--4--4--4--4--5--4--2----------------------------|
C#|----x--x--x--x--x--x--x--x--x--x--x--x--x--x--x----------------------------|
G#|----3--3--3--5--5--5--2--2--2--2--2--2--3--2--0----------------------------|
C#|---------------------------------------------------------------------------|





Chorus
1:34 - Rhythm
D#|---------------------------------------------------------------------------|
A#|---------------------------------------------------------------------------|
F#|---------------------------------------------------------------------------|
C#|----3-----3-----3-----3-----3--7--7-----7--7--7--7-------------------------|
G#|----3-----3-----3-----3-----3--7--7-----7--7--7--7-------------------------|
C#|----3-----3-----3-----3-----3--7--7-----7--7--7--7-------------------------|

D#|---------------------------------------------------------------------------|
A#|---------------------------------------------------------------------------|
F#|---------------------------------------------------------------------------|
C#|----10----10----10----10----10-5--5-----5--5-----5-------------------------|
G#|----10----10----10----10----10-5--5-----5--5-----5-------------------------|
C#|----10----10----10----10----10-5--5-----5--5-----5-------------------------|

D#|---------------------------------------------------------------------------|
A#|---------------------------------------------------------------------------|
F#|---------------------------------------------------------------------------|
C#|----3-----3-----3-----3-----3--7--7-----7--7--7--7-------------------------|
G#|----3-----3-----3-----3-----3--7--7-----7--7--7--7-------------------------|
C#|----3-----3-----3-----3-----3--7--7-----7--7--7--7-------------------------|

D#|---------------------------------------------------------------------------|
A#|---------------------------------------------------------------------------|
F#|---------------------------------------------------------------------------|
C#|----5-----5-----5-----5--5-----5--5-----5--5--5--5-------------------------|
G#|----5-----5-----5-----5--5-----5--5-----5--5--5--5-------------------------|
C#|----5-----5-----5-----5--5-----5--5-----5--5--5--5-------------------------|

D#|---------------------------------------------------------------------------|
A#|---------------------------------------------------------------------------|
F#|---------------------------------------------------------------------------|
C#|----3-----3-----3-----3-----3--7--7-----7--7--7--7-------------------------|
G#|----3-----3-----3-----3-----3--7--7-----7--7--7--7-------------------------|
C#|----3-----3-----3-----3-----3--7--7-----7--7--7--7-------------------------|

D#|---------------------------------------------------------------------------|
A#|---------------------------------------------------------------------------|
F#|---------------------------------------------------------------------------|
C#|----10----10----10----10-10-5--5--5-----5--5-----5-------------------------|
G#|----10----10----10----10-10-5--5--5-----5--5-----5-------------------------|
C#|----10----10----10----10-10-5--5--5-----5--5-----5-------------------------|

D#|---------------------------------------------------------------------------|
A#|---------------------------------------------------------------------------|
F#|---------------------------------------------------------------------------|
C#|----3-----3-----3-----3-----3--7--7-----7--7--7--7-------------------------|
G#|----3-----3-----3-----3-----3--7--7-----7--7--7--7-------------------------|
C#|----3-----3-----3-----3-----3--7--7-----7--7--7--7-------------------------|

D#|---------------------------------------------------------------------------|
A#|---------------------------------------------------------------------------|
F#|---------------------------------------------------------------------------|
C#|----5--------5-----x--5--------5--x--x--5--5--5----------------------------|
G#|----5--------5-----x--5--------5--x--x--5--5--5----------------------------|
C#|----5--------5-----x--5--------5--x--x--5--5--5----------------------------|



1:34 - Lead
D#|-------------15----15----------15----15-12h13p12---------------------------|
A#|----13----13----------13----13---------------------------------------------|
F#|---------------------------------------------------------------------------|
C#|---------------------------------------------------------------------------| x2
G#|---------------------------------------------------------------------------|
C#|---------------------------------------------------------------------------|

D#|---------------------------------------------------------------------------|
A#|---------------------------------------------------------------------------|
F#|----9--7--9--9--9--5--5--5--5--12-12-12-12-9--9--9-------------------------|
C#|----x--x--x--x--x--x--x--x--x--x--x--x--x--x--x--x-------------------------|
G#|----7--5--7--7--7--3--3--3--3--10-10-10-10-7--7--7-------------------------|
C#|---------------------------------------------------------------------------|

D#|---------------------------------------------------------------------------|
A#|---------------------------------------------------------------------------|
F#|----9--9--9--9--9--5--5--5--5--12-12-12-12-14-14-14------------------------|  X2 (8 bars)
C#|----x--x--x--x--x--x--x--x--x--x--x--x--x--x--x--x-------------------------|
G#|----7--7--7--7--7--3--3--3--3--10-10-10-10-12-12-12------------------------|
C#|---------------------------------------------------------------------------|





Bridge
2:00 - Rhythm
D#|---------------------------------------------------------------------------|
A#|---------------------------------------------------------------------------|
F#|---------------------------------------------------------------------------|
C#|----3--3--3----------------------------------------------------------------|
G#|----3--3--3----------------------------------------------------------------|
C#|----3--3--3----------------------------------------------------------------|

D#|---------------------------------------------------------------------------|
A#|---------------------------------------------------------------------------|
F#|----5--5--5--5--5--5--5--5--4--4--4--4--4--4--4--4-------------------------|
C#|----5--5--5--5--5--5--5--5--5--5--5--5--5--5--5--5-------------------------|  x2
G#|----3--3--3--3--3--3--3--3--2--2--2--2--2--2--2--2-------------------------|
C#|---------------------------------------------------------------------------|


2:00 - Lead
D#|---------------------------------------------------------------------------|
A#|---------------------------------------------------------------------------|
F#|----12-12-12---------------------------------------------------------------|
C#|----x--x--x----------------------------------------------------------------|
G#|----10-10-10---------------------------------------------------------------|
C#|---------------------------------------------------------------------------|

D#|---------------------------------------------------------------------------|
A#|----17-17-17-17-17-17-17-18-15-15-15-15-15-15-15-15------------------------|
F#|----x--x--x--x--x--x--x--x--x--x--x--x--x--x--x--x-------------------------|
C#|----14-14-14-14-14-14-14-15-12-12-12-12-12-12-12-12------------------------|  x2
G#|---------------------------------------------------------------------------|
C#|---------------------------------------------------------------------------|



2:13 - Rhythm
D#|---------------------------------------------------------------------------|
A#|---------------------------------------------------------------------------|
F#|----7--7--7--7--7--7--7--7-------------------------------------------------|
C#|----7--7--7--7--7--7--7--7-----3--3--3--3--3--3--3-------------------------|
G#|----5--5--5--5--5--5--5--5-----3--3--3--3--3--3--3-------------------------|
C#|-------------------------------3--3--3--3--3--3--3-------------------------|

D#|---------------------------------------------------------------------------|
A#|---------------------------------------------------------------------------|
F#|---------------------------------------------------------------------------|
C#|----7--7--7--7--7--7--7--7-----5--5--5--5--5--5--5-------------------------|
G#|----7--7--7--7--7--7--7--7-----5--5--5--5--5--5--5-------------------------|
C#|----7--7--7--7--7--7--7--7-----5--5--5--5--5--5--5-------------------------|

D#|---------------------------------------------------------------------------|
A#|---------------------------------------------------------------------------|
F#|----7--7--7--7--7--7--7--7-------------------------------------------------|
C#|----7--7--7--7--7--7--7--7-----3--3--3--3--3--3--3-------------------------|
G#|----5--5--5--5--5--5--5--5-----3--3--3--3--3--3--3-------------------------|
C#|-------------------------------3--3--3--3--3--3--3-------------------------|

D#|---------------------------------------------------------------------------|
A#|---------------------------------------------------------------------------|
F#|---------------------------------------------------------------------------|
C#|----5-----------------5-----------------5--5--5--5-------------------------|
G#|----5-----5--5-----5--5-----5--5-----5--5--5--5--5-------------------------|
C#|----5-----5--5-----5--5-----5--5-----5--5--5--5--5-------------------------|
             *  *     *        *  *     *

2:13 - Lead
D#|----12h13p12----12----------10-12-12-12-12-12-12-12------------------------|
A#|-------------13----13------------------------------------------------------|
F#|----------------------14-12------------------------------------------------|
C#|---------------------------------------------------------------------------|
G#|---------------------------------------------------------------------------|
C#|---------------------------------------------------------------------------|

D#|----12h13p12----12----------13-15-15-15-15-15-15-15------------------------|
A#|-------------13----13------------------------------------------------------|
F#|----------------------14-12------------------------------------------------|
C#|---------------------------------------------------------------------------|
G#|---------------------------------------------------------------------------|
C#|---------------------------------------------------------------------------|

D#|----12h13p12----12----------10-12-12-12-12-12-12-12------------------------|
A#|-------------13----13------------------------------------------------------|
F#|----------------------14-12------------------------------------------------|
C#|---------------------------------------------------------------------------|
G#|---------------------------------------------------------------------------|
C#|---------------------------------------------------------------------------|

D#|---------------------------------------------------------------------------|
A#|---------------------------------------------------------------------------|
F#|----12----12-12----12-12----12-12----12-12-12-12-12------------------------|
C#|----x-----x--x-----x--x-----x--x-----x--x--x--x--x-------------------------|
G#|----10----10-10----10-10----10-10----10-10-10-10-10------------------------|
C#|---------------------------------------------------------------------------|





Pre Chorus
2:26 - Rhythm
D#|---------------------------------------------------------------------------|
A#|---------------------------------------------------------------------------|
F#|---------------------------------------------------------------------------|
C#|----7----------------------------------------------------------------------|
G#|----7----------------------------------------------------------------------|
C#|----7----------------------------------------------------------------------|

2:26 - Lead
D#|-------------3-----------------------3-------------------------------------|
A#|-------1-----------1-----1-----1-----------1-----1-------------------------|
F#|----2-----2-----------2----------------------------------------------------|
C#|----------------------------3-----3-----------3----------------------------|
G#|---------------------------------------------------------------------------|
C#|---------------------------------------------------------------------------|

D#|-------------3-----------------------3-------------------------------------|
A#|-------1-----------1-----1-----1-----------1-----1-------------------------|
F#|---------------------------------------------------------------------------|
C#|---------------------------------------------------------------------------|  x2 (4 bars)
G#|----3-----3-----------3-----2-----2-----------2----------------------------|
C#|---------------------------------------------------------------------------|

D#|-------------3-----------------------3-------------------------------------|
A#|-------1-----------1-----1-----1-----------1-----1-------------------------|
F#|----2-----2-----------2----------------------------------------------------|
C#|----------------------------3-----3-----------3----------------------------|
G#|---------------------------------------------------------------------------|
C#|---------------------------------------------------------------------------|


2:39 - Rhythm
D#|---------------------------------------------------------------------------|
A#|---------------------------------------------------------------------------|
F#|---------------------------------------------------------------------------|
C#|---------------------------------------------------------------------------|
G#|----3-----3-----3-----3-----7-----7-----7-----7----------------------------|
C#|----3-----3-----3-----3-----7-----7-----7-----7----------------------------|
       *     *     *     *     *     *     *     *
D#|---------------------------------------------------------------------------|
A#|-------------------------------------------x--x----------------------------|
F#|-------------------------------------------x--x----------------------------|
C#|-------------------------------------------x--x----------------------------|
G#|----5--5--5--5--5--5--5--5--5--5--5--5--5----------------------------------|
C#|----5--5--5--5--5--5--5--5--5--5--5--5--5----------------------------------|
       *  *  *  *  *  *  *  *
       (Slowly ease of palm mutes)




Chorus
2:46 - Rhythm
D#|---------------------------------------------------------------------------|
A#|---------------------------------------------------------------------------|
F#|---------------------------------------------------------------------------|
C#|----3-----------3--------3--3--7--7-----7--7-----7-------------------------|
G#|----3-----------3--------3--3--7--7-----7--7-----7-------------------------|
C#|----3-----------3--------3--3--7--7-----7--7-----7-------------------------|

D#|---------------------------------------------------------------------------|
A#|---------------------------------------------------------------------------|
F#|---------------------------------------------------------------------------|
C#|----10----------10-------10-10-5--5-----5--5-----5-------------------------|
G#|----10----------10-------10-10-5--5-----5--5-----5-------------------------|
C#|----10----------10-------10-10-5--5-----5--5-----5-------------------------|

D#|---------------------------------------------------------------------------|
A#|---------------------------------------------------------------------------|
F#|---------------------------------------------------------------------------|
C#|----3-----------3--------3--3--7--7-----7--7-----7-------------------------|
G#|----3-----------3--------3--3--7--7-----7--7-----7-------------------------|
C#|----3-----------3--------3--3--7--7-----7--7-----7-------------------------|

D#|---------------------------------------------------------------------------|
A#|---------------------------------------------------------------------------|
F#|---------------------------------------------------------------------------|
C#|----5-----5--5-----x--5-----5--5--x--5--5--5--5--5-------------------------|
G#|----5-----5--5-----x--5-----5--5--x--5--5--5--5--5-------------------------|
C#|----5-----5--5-----x--5-----5--5--x--5--5--5--5--5-------------------------|


D#|---------------------------------------------------------------------------|
A#|---------------------------------------------------------------------------|
F#|---------------------------------------------------------------------------|
C#|----3--3--3--3--3--3--3--3--7--7--7--7--7--7--7--7-------------------------|
G#|----3--3--3--3--3--3--3--3--7--7--7--7--7--7--7--7-------------------------|
C#|----3--3--3--3--3--3--3--3--7--7--7--7--7--7--7--7-------------------------|

D#|---------------------------------------------------------------------------|
A#|---------------------------------------------------------------------------|
F#|---------------------------------------------------------------------------|
C#|----10-10-10-10-10-10-10-10-5--5--5--5--5--5--5--5-------------------------|
G#|----10-10-10-10-10-10-10-10-5--5--5--5--5--5--5--5-------------------------|
C#|----10-10-10-10-10-10-10-10-5--5--5--5--5--5--5--5-------------------------|

D#|---------------------------------------------------------------------------|
A#|---------------------------------------------------------------------------|
F#|---------------------------------------------------------------------------|
C#|----3--3--3--3--3--3--3--3--7--7--7--7--7--7--7--7-------------------------|
G#|----3--3--3--3--3--3--3--3--7--7--7--7--7--7--7--7-------------------------|
C#|----3--3--3--3--3--3--3--3--7--7--7--7--7--7--7--7-------------------------|

D#|---------------------------------------------------------------------------|
A#|---------------------------------------------------------------------------|
F#|---------------------------------------------------------------------------|
C#|----5-----5--5-----x--5-----5--5--x--5--5--5--5--5-------------------------|
G#|----5-----5--5-----x--5-----5--5--x--5--5--5--5--5-------------------------|
C#|----5-----5--5-----x--5-----5--5--x--5--5--5--5--5-------------------------|



D#|---------------------------------------------------------------------------|
A#|---------------------------------------------------------------------------|
F#|---------------------------------------------------------------------------|
C#|----3--3--3--3--3--3--3--3--7--7--7--7--7--7--7--7-------------------------|
G#|----3--3--3--3--3--3--3--3--7--7--7--7--7--7--7--7-------------------------|
C#|----3--3--3--3--3--3--3--3--7--7--7--7--7--7--7--7-------------------------|

D#|---------------------------------------------------------------------------|
A#|---------------------------------------------------------------------------|
F#|---------------------------------------------------------------------------|
C#|----10-10-10-10-10-10-10-10-5--5--5--5--5--5--5--5-------------------------|
G#|----10-10-10-10-10-10-10-10-5--5--5--5--5--5--5--5-------------------------|
C#|----10-10-10-10-10-10-10-10-5--5--5--5--5--5--5--5-------------------------|

D#|---------------------------------------------------------------------------|
A#|---------------------------------------------------------------------------|
F#|---------------------------------------------------------------------------|
C#|----3--3--3--3--3--3--3--3--7--7--7--7--7--7--7--7-------------------------|
G#|----3--3--3--3--3--3--3--3--7--7--7--7--7--7--7--7-------------------------|
C#|----3--3--3--3--3--3--3--3--7--7--7--7--7--7--7--7-------------------------|

D#|---------------------------------------------------------------------------|
A#|---------------------------------------------------------------------------|
F#|---------------------------------------------------------------------------|
C#|----5-----------------5----------------------------------------------------|
G#|----5-----5--5-----5--5----------------------------------------------------|
C#|----5-----5--5-----5--5----------------------------------------------------|
             *  *     *



Chorus
2:46 - Lead
D#|-------------15----15----------15----15-12h13p12---------------------------|
A#|----13----13----------13----13---------------------------------------------|
F#|---------------------------------------------------------------------------|
C#|---------------------------------------------------------------------------| x2
G#|---------------------------------------------------------------------------|
C#|---------------------------------------------------------------------------|

D#|---------------------------------------------------------------------------|
A#|---------------------------------------------------------------------------|
F#|----9--7--9--9--9--5--5--5--5--12-12-12-12-9--9--9-------------------------|
C#|----x--x--x--x--x--x--x--x--x--x--x--x--x--x--x--x-------------------------|
G#|----7--5--7--7--7--3--3--3--3--10-10-10-10-7--7--7-------------------------|
C#|---------------------------------------------------------------------------|

D#|---------------------------------------------------------------------------|
A#|---------------------------------------------------------------------------|
F#|----9--9--9--9--9--5--5--5--5--12-12-12-12-14-14-14------------------------|  X2 (8 bars)
C#|----x--x--x--x--x--x--x--x--x--x--x--x--x--x--x--x-------------------------|
G#|----7--7--7--7--7--3--3--3--3--10-10-10-10-12-12-12------------------------|
C#|---------------------------------------------------------------------------|


D#|-------------15----15----------15----15-12h13p12---------------------------|
A#|----13----13----------13----13---------------------------------------------|
F#|---------------------------------------------------------------------------|
C#|---------------------------------------------------------------------------| x2
G#|---------------------------------------------------------------------------|
C#|---------------------------------------------------------------------------|

D#|---------------------------------------------------------------------------|
A#|---------------------------------------------------------------------------|
F#|----9--7--9--9--9--5--5--5--5--12-12-12-12-9--9--9-------------------------|
C#|----x--x--x--x--x--x--x--x--x--x--x--x--x--x--x--x-------------------------|
G#|----7--5--7--7--7--3--3--3--3--10-10-10-10-7--7--7-------------------------|
C#|---------------------------------------------------------------------------|

D#|---------------------------------------------------------------------------|
A#|---------------------------------------------------------------------------|
F#|----12----12-12----12-12---------------------------------------------------|
C#|----x-----x--x-----x--x----------------------------------------------------|
G#|----10----10-10----10-10---------------------------------------------------|
C#|---------------------------------------------------------------------------|
             *  *     *




************************************
| x   Dead note
| g   Grace note
| (n) Ghost note
| h   Hammer-on
| p   Pull-off
| r   Release
| >   Accented note
| t   Tapping
| b   Bend
| br  Bend release
| pb  Pre-bend
| pbr Pre-bend release
| /   Slide up
| \   Slide down
| ~   Vibrato
| s   Slap
| P   Pop
| *   Palm mute
| TR  Trill
| N   Tremolo

************************************

            
            
Suggest correction
Creating personal tab
Creating personal tab
You can edit any tab online and save it as your Personal.

You can edit, replace or remove any tab part or add personal notes – all changes will be seen only by you.

Personal tabs can be accessed anytime from any device, even offline.
Learn more »
comments
print report bad tab
guest
You may want to rate the tab now too:
select rating
Wanna post a correction for this tab? Suggest correction