Oops, an error
Loading. Please wait.

All You Are Is History chords

version 1
version 1

Whole song

Interactive

Video

12,262 views 69 this week
no commentswrite comment
1 2 3 4 5
x 8
add to favorites
×
Save as Personal and add changes to this tab that will be seen only by you. Learn more ›
×
You can save this tab as Personal to edit and correct it or add notes. All changes will be seen only by you. Learn more »
launch autoscroll
font size
0
reset
transpose
0
reset
display chords
guitar tuner
edit
Autoscroll
slow
fast
+/-
esc
set tempo
stop
Strumming
There is no strumming pattern for this song yet. and get +5 IQ
Tabbed By: Fabio BlenderBR



Tuning: Half Step Down (Eb Ab Db Gb Bb Eb)
            
I'm a realist and an optimist
But I swear to you, I'm not getting over this


[Intro]

eb|-----------------------------------------------------------------|
Bb|-----------------------------------------------------------------|
Gb|----8/9-9-9-9--8-8-8-8--6-6-6-6--4-4-4-4--16-16-11-11-11-13------|
Db|----x/x-x-x-x--x-x-x-x--x-x-x-x--x-x-x-x--x--x--x--x--x--x-------|
Ab|----6/7-7-7-7--6-6-6-6--4-4-4-4--2-2-2-2--14-14-9--9--9/-11------|
Eb|-----------------------------------------------------------------|

eb|-----------------------------------------------------------------|
Bb|-----------------------------------------------------------------|
Gb|----8/9-9-9-9--8-8-8-8--6-6-6-6--4-4-4-4--16-16-11-11-11\-9-9----|
Db|----x/x-x-x-x--x-x-x-x--x-x-x-x--x-x-x-x--x--x--x--x--x-\-x-x----|
Ab|----6/7-7-7-7--6-6-6-6--4-4-4-4--2-2-2-2--14-14-9--9--9-\-7-7----|
Eb|-----------------------------------------------------------------|
      


[Verse 1]

E
Walking tall in a small town
                                         E
Full of yourself when you're feeling down

And that's all that matters to you
E                E   B
Can't pretend anymore
C#                F#m       G#    E
Talk is cheap, I said that before
                    E   B   
But you can still taste it
C#                                     F#m         G#
And that's one more reason why you're never gonna make it


[Chorus]

A          E               G#                 F#m    
I've had enough of all the talk on how you're saving me
A                 E               C#             B
Talk like you're self assured but all you are is history
A     E       B           C#
Speak slow, I want you to know that
       A
I'm a realist and an optimist
       B
But I swear to you, I'm not getting over this


[Intro]

eb|-----------------------------------------------------------------|
Bb|-----------------------------------------------------------------|
Gb|----8/9-9-9-9--8-8-8-8--6-6-6-6--4-4-4-4--16-16-11-11-11-13------|
Db|----x/x-x-x-x--x-x-x-x--x-x-x-x--x-x-x-x--x--x--x--x--x--x-------|
Ab|----6/7-7-7-7--6-6-6-6--4-4-4-4--2-2-2-2--14-14-9--9--9/-11------|
Eb|-----------------------------------------------------------------|

No, no, I'm not getting over this

eb|-----------------------------------------------------------------|
Bb|-----------------------------------------------------------------|
Gb|----8/9-9-9-9--8-8-8-8--6-6-6-6--4-4-4-4--16-16-11-11-11\-9-9----|
Db|----x/x-x-x-x--x-x-x-x--x-x-x-x--x-x-x-x--x--x--x--x--x-\-x-x----|
Ab|----6/7-7-7-7--6-6-6-6--4-4-4-4--2-2-2-2--14-14-9--9--9-\-7-7----|
Eb|-----------------------------------------------------------------|


[Verse 2]

E                                G#
You've got the right be all that you wanna be
                   A
And that's extraordinary
       A
Is it worth the risk? (Can you handle it?)
E
I can't pretend anymore
     G#                                     A
You don't wanna leave, you said that before

Oh, but you can still taste it
           F#m                  G#
And that's one more reason why you're never gonna make it


[Chorus]

A          E               G#                 F#m    
I've had enough of all the talk on how you're saving me
A                 E               C#             B
Talk like you're self assured but all you are is history
A     E       B           C#
Speak slow, I want you to know that
       A
I'm a realist and an optimist
       B                                      C
But I swear to you, I'm not getting over this


[Bridge]

C#                  B        A             B  
Fall back in line, it's too much to expose
C#                     B         A          B
It's your design and that's the way it goes
C#                  B    A                             B
I think I know my limits, and how to make good decisions
C#          B A            B E          E
It hits home,   so just go


[Chorus]

A          E               G#                 F#m    
I've had enough of all the talk on how you're saving me
A                 E               C#             B
Talk like you're self assured but all you are is history
A     E       B           C#
Speak slow, I want you to know that
       A
I'm a realist and an optimist
            B                                      
And that's one more reason why you're not getting over this
       A
I'm a realist and an optimist
       B
But I swear to you, I'm not getting over this


[Intro]

eb|-----------------------------------------------------------------|
Bb|-----------------------------------------------------------------|
Gb|----8/9-9-9-9--8-8-8-8--6-6-6-6--4-4-4-4--16-16-11-11-11-13------|
Db|----x/x-x-x-x--x-x-x-x--x-x-x-x--x-x-x-x--x--x--x--x--x--x-------|
Ab|----6/7-7-7-7--6-6-6-6--4-4-4-4--2-2-2-2--14-14-9--9--9/-11------|
Eb|-----------------------------------------------------------------|

No, no, I'm not getting over this

eb|-----------------------------------------------------------------|
Bb|-----------------------------------------------------------------|
Gb|----8/9-9-9-9--8-8-8-8--6-6-6-6--4-4-4-4--16-16-11-11-11\-9-9----|
Db|----x/x-x-x-x--x-x-x-x--x-x-x-x--x-x-x-x--x--x--x--x--x-\-x-x----|
Ab|----6/7-7-7-7--6-6-6-6--4-4-4-4--2-2-2-2--14-14-9--9--9-\-7-7----|
Eb|-----------------------------------------------------------------|

No, no, I'm not getting over this

************************************

| x  Dead note
| b  Bend
| /  Slide up
| \  Slide down

************************************

            
            
Suggest correction
Creating personal tab
Creating personal tab
You can edit any tab online and save it as your Personal.

You can edit, replace or remove any tab part or add personal notes – all changes will be seen only by you.

Personal tabs can be accessed anytime from any device, even offline.
Learn more »
comments
print report bad tab
guest
You may want to rate the tab now too:
select rating
Wanna post a correction for this tab? Suggest correction