Oops, an error
Loading. Please wait.

All You Are Is History tab

version 1
version 1

Whole song

Interactive

Video

3,916 views 39 this week
no commentswrite comment
1 2 3 4 5
x 3
add to favorites
×
Save as Personal and add changes to this tab that will be seen only by you. Learn more ›
×
You can save this tab as Personal to edit and correct it or add notes. All changes will be seen only by you. Learn more »
launch autoscroll
font size
0
reset
how to read this tab
guitar tuner
edit
Autoscroll
slow
fast
+/-
esc
set tempo
stop
-------------------------------------------------------------------------------
                        State Champs - All You Are Is History
-------------------------------------------------------------------------------
Tabbed by: scottismad
E-mail: scott.simpson@hotmail.com.au

Tuning: Drop C#


Intro
0:05 - Rhythm
D#|---------------------------------------------------------------------------|
A#|---------------------------------------------------------------------------|
F#|---------------------------------------------------------------------------|
C#|----2-----------------------------2--------2-------------------------------|
G#|----2-----------------------------2--------2-------------------------------|
C#|----2-----------------------------2--------2-------------------------------|

D#|---------------------------------------------------------------------------|
A#|---------------------------------------------------------------------------|
F#|----x--x--6-----x--6-----2--2-----2--2--2--2--2--2-------------------------|
C#|----x--x--6-----x--6-----2--2-----2--2--2--2--2--2-------------------------|
G#|----x--x--4-----x--4-----0--0-----0--0--0--0--0--0-------------------------|
C#|---------------------------------------------------------------------------|

D#|---------------------------------------------------------------------------|
A#|---------------------------------------------------------------------------|
F#|---------------------------------------------------------------------------|
C#|----2-----------------------------2--------2-------------------------------|
G#|----2-----------------------------2--------2-------------------------------|
C#|----2-----------------------------2--------2-------------------------------|

D#|---------------------------------------------------------------------------|
A#|---------------------------------------------------------------------------|
F#|----x--x--6-----x--6-----4--4--------4--4--4--4--4-------------------------|
C#|----x--x--6-----x--6-----4--4--------4--4--4--4--4-------------------------|
G#|----x--x--4-----x--4-----2--2--------2--2--2--2--2-------------------------|
C#|---------------------------------------------------------------------------|


0:05 - Lead
D#|---------------------------------------------------------------------------|
A#|---------------------------------------------------------------------------|
F#|----8--9--9--9--9--8--8--8--8--6--6--6--6--4--4--4-------------------------|
C#|----x--x--x--x--x--x--x--x--x--x--x--x--x--x--x--x-------------------------|
G#|----6--7--7--7--7--6--6--6--6--4--4--4--4--2--2--2-------------------------|
C#|---------------------------------------------------------------------------|

D#|---------------------------------------------------------------------------|
A#|---------------------------------------------------------------------------|
F#|----x--x--16-------16----11-11----11-11-11-13-13-13------------------------|
C#|----x--x--x--------x-----x--x-----x--x--x--x--x--x-------------------------|
G#|----x--x--14-------14----9--9-----9--9--9--11-11-11------------------------|
C#|---------------------------------------------------------------------------|

D#|---------------------------------------------------------------------------|
A#|---------------------------------------------------------------------------|
F#|----8--9--9--9--9--8--8--8--8--6--6--6--6--4--4--4-------------------------|
C#|----x--x--x--x--x--x--x--x--x--x--x--x--x--x--x--x-------------------------|
G#|----6--7--7--7--7--6--6--6--6--4--4--4--4--2--2--2-------------------------|
C#|---------------------------------------------------------------------------|

D#|---------------------------------------------------------------------------|
A#|---------------------------------------------------------------------------|
F#|----x--x--16-------16----11-11-------11-11-9--9--9-------------------------|
C#|----x--x--x--------x-----x--x--------x--x--x--x--x-------------------------|
G#|----x--x--14-------14----9--9--------9--9--7--7--7-------------------------|
C#|---------------------------------------------------------------------------|





Verse
0:14 - Rhythm
D#|---------------------------------------------------------------------------|
A#|---------------------------------------------------------------------------|
F#|----------9----------------------------------------------------------------|
C#|----9--9--9----------------------------------------------------------------|
G#|----7--7--7----------------------------------------------------------------|
C#|---------------------------------------------------------------------------|
       *  *

D#|---------------------------------------------------------------------------|
A#|---------------------------------------------------------------------------|
F#|----------9----------(9\)--------------------------------------------------|
C#|----9--9--9----------(9\)--------------------------------------------------|
G#|----7--7--7----------(7\)--------------------------------------------------|
C#|---------------------------------------------------------------------------|
       *  *

0:25
D#|---------------------------------------------------------------------------|
A#|---------------------------------------------------------------------------|
F#|---------------------------------------------------------------------------|
C#|---------------------------------------------------------------------------|
G#|----2--2--------------------7--7--------9--9-------------------------------|
C#|----2--2--------------------6--6--------9--9-------------------------------|
       *  *                    *  *        *  *

D#|---------------------------------------------------------------------------|
A#|---------------------------------------------------------------------------|
F#|---------------------------------------------------------------------------|
C#|----6--6-------------------------------------------------------------------|
G#|----4--4--------------------4--4--------7--7-------------------------------|
C#|----------------------------4--4--------6--6-------------------------------|
       *  *                    *  *        *  *

D#|---------------------------------------------------------------------------|
A#|---------------------------------------------------------------------------|
F#|---------------------------------------------------------------------------|
C#|---------------------------------------------------------------------------|
G#|----2--2--------------------7--7--------9--9-------------------------------|
C#|----2--2--------------------6--6--------9--9-------------------------------|
       *  *                    *  *        *  *

D#|---------------------------------------------------------------------------|
A#|---------------------------------------------------------------------------|
F#|---------------------------------------------------------------------------|
C#|----6--6--------------------------------6--6--6--6-------------------------|
G#|----4--4--------------------4--4--4--4--7--7--7--7-------------------------|
C#|----------------------------4--4--4--4--6--6--6--6-------------------------|
       *  *                    *  *        


0:25 - Lead
D#|----------------------------------------7----------------------------------|
A#|----------------------9-----7--9--7----------------------------------------|
F#|----------6--9--8--------------------9--------9----------------------------|
C#|-------------------9-----9-------------------------------------------------|
G#|---------------------------------------------------------------------------|
C#|---------------------------------------------------------------------------|

D#|---------------------------------------------------------------------------|
A#|----------------------9-----7--9--7--------9--7----------------------------|
F#|----------6--9--8--------------------9--8--------9-------------------------|
C#|-------------------9-----9-------------------------------------------------|
G#|---------------------------------------------------------------------------|
C#|---------------------------------------------------------------------------|

D#|----------------------------------------7----------------------------------|
A#|----------------------9-----7--9--7----------------------------------------|
F#|----------6--9--8--------------------9--------9----------------------------|
C#|-------------------9-----9-------------------------------------------------|
G#|---------------------------------------------------------------------------|
C#|---------------------------------------------------------------------------|

D#|---------------------------------------------------------------------------|
A#|----------------------9-----7--9--7----------------------------------------|
F#|----------6--9--8--------------------9--8--9--8--9-------------------------|
C#|-------------------9-----9-------------------------------------------------|
G#|---------------------------------------------------------------------------|
C#|---------------------------------------------------------------------------|





Chorus
0:35 - Rhythm
D#|---------------------------------------------------------------------------|
A#|---------------------------------------------------------------------------|
F#|---------------------------------------------------------------------------|
C#|----------7-----7--7--7--2-----2--2-----2--2--2----------------------------|
G#|----------7-----7--7--7--2-----2--2-----2--2--2----------------------------|
C#|----------7-----7--7--7--2-----2--2-----2--2--2----------------------------|

D#|---------------------------------------------------------------------------|
A#|---------------------------------------------------------------------------|
F#|---------------------------------------------------------------------------|
C#|----6-----6-----6--6--6--4-----4--4-----4--4--4----------------------------|
G#|----7-----7-----7--7--7--4-----4--4-----4--4--4----------------------------|
C#|----6-----6-----6--6--6--4-----4--4-----4--4--4----------------------------|

D#|---------------------------------------------------------------------------|
A#|---------------------------------------------------------------------------|
F#|----2-----2-----2--2--2----------------------------------------------------|
C#|----2-----2-----2--2--2--2-----2--2-----2--2--2----------------------------|
G#|----0-----0-----0--0--0--2-----2--2-----2--2--2----------------------------|
C#|-------------------------2-----2--2-----2--2--2----------------------------|

D#|---------------------------------------------------------------------------|
A#|---------------------------------------------------------------------------|
F#|----6-----6-----6--6--6--4-----4--4-----4--4--4----------------------------|
C#|----6-----6-----6--6--6--4-----4--4-----4--4--4----------------------------|
G#|----4-----4-----4--4--4--2-----2--2-----2--2--2----------------------------|
C#|---------------------------------------------------------------------------|

D#|---------------------------------------------------------------------------|
A#|---------------------------------------------------------------------------|
F#|----------2-----2--2--2----------------------------------------------------|
C#|----------2-----2--2--2--2-----2--2-----2--2--2----------------------------|
G#|----------0-----0--0--0--2-----2--2-----2--2--2----------------------------|
C#|-------------------------2-----2--2-----2--2--2----------------------------|

D#|---------------------------------------------------------------------------|
A#|---------------------------------------------------------------------------|
F#|----4-----4-----4--4--4--6-----6--6-----6--6--6----------------------------|
C#|----4-----4-----4--4--4--6-----6--6-----6--6--6----------------------------|
G#|----2-----2-----2--2--2--4-----4--4-----4--4--4----------------------------|
C#|---------------------------------------------------------------------------|

D#|---------------------------------------------------------------------------|
A#|---------------------------------------------------------------------------|
F#|----2-----2-----2--2--2--2-----2--2-----2--2--2----------------------------|
C#|----2-----2-----2--2--2--2-----2--2-----2--2--2----------------------------|
G#|----0-----0-----0--0--0--0-----0--0-----0--0--0----------------------------|
C#|---------------------------------------------------------------------------|

D#|---------------------------------------------------------------------------|
A#|---------------------------------------------------------------------------|
F#|----4-----4-----4--4--4--4-----4--4----------------------------------------|
C#|----4-----4-----4--4--4--4-----4--4-----5--5--5----------------------------|
G#|----2-----2-----2--2--2--2-----2--2-----5--5--5----------------------------|
C#|----------------------------------------5--5--5----------------------------|


0:35 - Lead
D#|----------7----------------------------------------------------------------|
A#|----------10-------10----10-9-----9-----9-----9----------------------------|
F#|----------9-----9-----9--------9-----9-----9-----9-------------------------|
C#|---------------------------------------------------------------------------|
G#|---------------------------------------------------------------------------|
C#|---------------------------------------------------------------------------|

D#|---------------------------------------------------------------------------|
A#|----7-----7-----7-----7-----9-----9-----9-----9----------------------------|
F#|-------9-----9-----9-----9-----9-----9-----9-----9-------------------------|
C#|---------------------------------------------------------------------------|
G#|---------------------------------------------------------------------------|
C#|---------------------------------------------------------------------------|

D#|---------------------------------------------------------------------------|
A#|----10----10----10----10----9-----9-----9-----9----------------------------|
F#|-------9-----9-----9-----9-----9-----9-----9-----9-------------------------|
C#|---------------------------------------------------------------------------|
G#|---------------------------------------------------------------------------|
C#|---------------------------------------------------------------------------|

D#|---------------------------------------------------------------------------|
A#|----12----12----12----12----10----10----10----10---------------------------|
F#|-------9-----9-----9-----9-----9-----9-----9-----9-------------------------|
C#|---------------------------------------------------------------------------|
G#|---------------------------------------------------------------------------|
C#|---------------------------------------------------------------------------|

D#|---------------------------------------------------------------------------|
A#|----7-----------9-----------12----------9----------------------------------|
F#|-------9-----9-----9-----9-----9-----9-----9-----9-------------------------|
C#|----------9-----------9-----------9-----------9----------------------------|
G#|---------------------------------------------------------------------------|
C#|---------------------------------------------------------------------------|
       *  *  *  *  *  *  *  *  *  *  *  *  *  *  *  *

D#|---------------------------------------------------------------------------|
A#|----7-----------7-----------7-----------7----------------------------------|
F#|-------9-----9-----9-----9-----9-----9-----9-----9-------------------------|
C#|----------9-----------9-----------11---------11----------------------------|
G#|---------------------------------------------------------------------------|
C#|---------------------------------------------------------------------------|
       *  *  *  *  *  *  *  *  *  *  *  *  *  *  *  *

D#|-------------------7--------7-----7--------------7-------------------------|
A#|----------------7----------------------------------------------------------|
F#|----9--------9--------9--9-----9-----9-----9-------------------------------|
C#|-------11-9-----------------------------11----9----------------------------|
G#|---------------------------------------------------------------------------|
C#|---------------------------------------------------------------------------|
       *  *  *  *  *  *  *  *  *  *  *  *  *  *  *  *

D#|---------------------------------------------------------------------------|
A#|---12-12-12-12-10-10-10-10-9--9--9--9--9--9--9--9--------------------------|
F#|---9--9--9--9--9--9--9--9--9--9--9--9--9--9--9--9--------------------------|
C#|---9--9--9--9--9--9--9--9--9--9--9--9--9--9--9--9--------------------------|
G#|---------------------------------------------------------------------------|
C#|---------------------------------------------------------------------------|






Intro Riff Repeats
0:54 - Rhythm
D#|---------------------------------------------------------------------------|
A#|---------------------------------------------------------------------------|
F#|---------------------------------------------------------------------------|
C#|----2-----------------------------2--------2-------------------------------|
G#|----2-----------------------------2--------2-------------------------------|
C#|----2-----------------------------2--------2-------------------------------|

D#|---------------------------------------------------------------------------|
A#|---------------------------------------------------------------------------|
F#|----x--x--6-----x--6-----2--2-----2--2--2--2--2--2-------------------------|
C#|----x--x--6-----x--6-----2--2-----2--2--2--2--2--2-------------------------|
G#|----x--x--4-----x--4-----0--0-----0--0--0--0--0--0-------------------------|
C#|---------------------------------------------------------------------------|

D#|---------------------------------------------------------------------------|
A#|---------------------------------------------------------------------------|
F#|---------------------------------------------------------------------------|
C#|----2-----------------------------2--------2-------------------------------|
G#|----2-----------------------------2--------2-------------------------------|
C#|----2-----------------------------2--------2-------------------------------|

D#|---------------------------------------------------------------------------|
A#|---------------------------------------------------------------------------|
F#|----x--x--6-----x--6-----4--4--------4--4--4--4--4-------------------------|
C#|----x--x--6-----x--6-----4--4--------4--4--4--4--4-------------------------|
G#|----x--x--4-----x--4-----2--2--------2--2--2--2--2-------------------------|
C#|---------------------------------------------------------------------------|


0:54 - Lead
D#|---------------------------------------------------------------------------|
A#|---------------------------------------------------------------------------|
F#|----8--9--9--9--9--8--8--8--8--6--6--6--6--4--4--4-------------------------|
C#|----x--x--x--x--x--x--x--x--x--x--x--x--x--x--x--x-------------------------|
G#|----6--7--7--7--7--6--6--6--6--4--4--4--4--2--2--2-------------------------|
C#|---------------------------------------------------------------------------|

D#|---------------------------------------------------------------------------|
A#|---------------------------------------------------------------------------|
F#|----x--x--16-------16----11-11----11-11-11-13-13-13------------------------|
C#|----x--x--x--------x-----x--x-----x--x--x--x--x--x-------------------------|
G#|----x--x--14-------14----9--9-----9--9--9--11-11-11------------------------|
C#|---------------------------------------------------------------------------|

D#|---------------------------------------------------------------------------|
A#|---------------------------------------------------------------------------|
F#|----8--9--9--9--9--8--8--8--8--6--6--6--6--4--4--4-------------------------|
C#|----x--x--x--x--x--x--x--x--x--x--x--x--x--x--x--x-------------------------|
G#|----6--7--7--7--7--6--6--6--6--4--4--4--4--2--2--2-------------------------|
C#|---------------------------------------------------------------------------|

D#|---------------------------------------------------------------------------|
A#|---------------------------------------------------------------------------|
F#|----x--x--16-------16----11-11-------11-11-9--9--9-------------------------|
C#|----x--x--x--------x-----x--x--------x--x--x--x--x-------------------------|
G#|----x--x--14-------14----9--9--------9--9--7--7--7-------------------------|
C#|---------------------------------------------------------------------------|






Verse
1:04 - Rhythm 
D#|---------------------------------------------------------------------------|
A#|---------------------------------------------------------------------------|
F#|---------------------------------------------------------------------------|
C#|----------2----------------------------------------------------------------|
G#|----2--2--2----------------------------------------------------------------|
C#|----2--2--2----------------------------------------------------------------|
       *  *       (fade out)


1:04 - Clean Guitar
D#|----------0----------------------------------------------------------------|
A#|----------0----------------------------------------------------------------|
F#|----------1----------------------------------------------------------------|
C#|----------2----------------------------------------------------------------|
G#|----------2----------------------------------------------------------------|
C#|----------2----------------------------------------------------------------|

D#|----0----------------------------------------------------------------------|
A#|----0----------------------------------------------------------------------|
F#|----4----------------------------------------------------------------------|
C#|----6----------------------------------------------------------------------|
G#|----7----------------------------------------------------------------------|
C#|----6----------------------------------------------------------------------|

D#|----0----------------------------------------------------------------------|
A#|----0----------------------------------------------------------------------|
F#|----2----------------------------------------------------------------------|
C#|----2----------------------------------------------------------------------|
G#|----0----------------------------------------------------------------------|
C#|---------------------------------------------------------------------------|

D#|----0----------------------------------------------------------------------|
A#|----0----------------------------------------------------------------------|
F#|----2----------------------------------------------------------------------|
C#|----2----------------------------------------------------------------------|
G#|----0----------------------------------------------------------------------|
C#|---------------------------------------------------------------------------|



1:14 - Rhythm
D#|---------------------------------------------------------------------------|
A#|---------------------------------------------------------------------------|
F#|---------------------------------------------------------------------------|
C#|----------------------------------2-----------2----------------------------|
G#|----2--2--2--------2-----2-----2--2-----2--2--2----------------------------|
C#|----2--2--2--------2-----2-----2--2-----2--2--2----------------------------|
       *  *  *        *     *     *        *  *

D#|---------------------------------------------------------------------------|
A#|---------------------------------------------------------------------------|
F#|---------------------------------------------------------------------------|
C#|----------------------------------6-----------6----------------------------|
G#|----7--7--7--------7-----7-----7--7-----7--7--7----------------------------|
C#|----6--6--6--------6-----6-----6--6-----6--6--6----------------------------|
       *  *  *        *     *     *        *  *

D#|---------------------------------------------------------------------------|
A#|---------------------------------------------------------------------------|
F#|---------------------------------------------------------------------------|
C#|----------------------------------7-----------7----------------------------|
G#|----7--7--7--------7-----7-----7--7-----7--7--7----------------------------|
C#|----7--7--7--------7-----7-----7--7-----7--7--7----------------------------|
       *  *  *        *     *     *        *  *

D#|---------------------------------------------------------------------------|
A#|---------------------------------------------------------------------------|
F#|---------------------------------------------------------------------------|
C#|----4-----4-----4--4--4-----6--6--6--6--6--6--6--6-------------------------|
G#|----4-----4-----4--4--4-----7--7--7--7--7--7--7--7-------------------------|
C#|----4-----4-----4--4--4-----6--6--6--6--6--6--6--6-------------------------|


1:14 - Clean/Lead
D#|-------------0-------------------------------------------------------------|
A#|-------0-----------0-------------------------------------------------------|
F#|----------1----------------------------------------------------------------|
C#|---------------------------------------------------------------------------|
G#|---------------------------------------------------------------------------|
C#|----2----------------------------------------------------------------------|

D#|-------------4-------------------------------------------------------------|
A#|-------0-----------0-------------------------------------------------------|
F#|----------4----------------------------------------------------------------|
C#|---------------------------------------------------------------------------|
G#|---------------------------------------------------------------------------|
C#|----6----------------------------------------------------------------------|

D#|-------------0-------------------------------------------------------------|
A#|----------------0----------------------------------------------------------|
F#|---------------------------------------------------------------------------|
C#|-------2-------------------------------------------------------------------|
G#|----0-----0----------------------------------------------------------------|
C#|---------------------------------------------------------------------------|

D#|---------------------------------------------------------------------------|
A#|----------------9-----------7--9--7-----7----------------------------------|
F#|-------9--8-----------9--11----------9-----9--8--9-------------------------|
C#|----11-------9-----9-------------------------------------------------------|
G#|---------------------------------------------------------------------------|
C#|---------------------------------------------------------------------------|





Chorus
1:24 - Rhythm
D#|---------------------------------------------------------------------------|
A#|---------------------------------------------------------------------------|
F#|---------------------------------------------------------------------------|
C#|----------7-----7--7--7--2-----2--2-----2--2--2----------------------------|
G#|----------7-----7--7--7--2-----2--2-----2--2--2----------------------------|
C#|----------7-----7--7--7--2-----2--2-----2--2--2----------------------------|

D#|---------------------------------------------------------------------------|
A#|---------------------------------------------------------------------------|
F#|---------------------------------------------------------------------------|
C#|----6-----6-----6--6--6--4-----4--4-----4--4--4----------------------------|
G#|----7-----7-----7--7--7--4-----4--4-----4--4--4----------------------------|
C#|----6-----6-----6--6--6--4-----4--4-----4--4--4----------------------------|

D#|---------------------------------------------------------------------------|
A#|---------------------------------------------------------------------------|
F#|----2-----2-----2--2--2----------------------------------------------------|
C#|----2-----2-----2--2--2--2-----2--2-----2--2--2----------------------------|
G#|----0-----0-----0--0--0--2-----2--2-----2--2--2----------------------------|
C#|-------------------------2-----2--2-----2--2--2----------------------------|

D#|---------------------------------------------------------------------------|
A#|---------------------------------------------------------------------------|
F#|----6-----6-----6--6--6--4-----4--4-----4--4--4----------------------------|
C#|----6-----6-----6--6--6--4-----4--4-----4--4--4----------------------------|
G#|----4-----4-----4--4--4--2-----2--2-----2--2--2----------------------------|
C#|---------------------------------------------------------------------------|

D#|---------------------------------------------------------------------------|
A#|---------------------------------------------------------------------------|
F#|----------2-----2--2--2----------------------------------------------------|
C#|----------2-----2--2--2--2-----2--2-----2--2--2----------------------------|
G#|----------0-----0--0--0--2-----2--2-----2--2--2----------------------------|
C#|-------------------------2-----2--2-----2--2--2----------------------------|

D#|---------------------------------------------------------------------------|
A#|---------------------------------------------------------------------------|
F#|----4-----4-----4--4--4--6-----6--6-----6--6--6----------------------------|
C#|----4-----4-----4--4--4--6-----6--6-----6--6--6----------------------------|
G#|----2-----2-----2--2--2--4-----4--4-----4--4--4----------------------------|
C#|---------------------------------------------------------------------------|

D#|---------------------------------------------------------------------------|
A#|---------------------------------------------------------------------------|
F#|----2-----2-----2--2--2--2-----2--2-----2--2--2----------------------------|
C#|----2-----2-----2--2--2--2-----2--2-----2--2--2----------------------------|
G#|----0-----0-----0--0--0--0-----0--0-----0--0--0----------------------------|
C#|---------------------------------------------------------------------------|

D#|---------------------------------------------------------------------------|
A#|---------------------------------------------------------------------------|
F#|----4-----4-----4--4--4--4--4--4--4--4--5----------------------------------|
C#|----4-----4-----4--4--4--4--4--4--4--4--5----------------------------------|
G#|----2-----2-----2--2--2--2--2--2--2--2--3----------------------------------|
C#|---------------------------------------------------------------------------|


1:24 - Lead
D#|----------7----------------------------------------------------------------|
A#|----------10-------10----10-9-----9-----9-----9----------------------------|
F#|----------9-----9-----9--------9-----9-----9-----9-------------------------|
C#|---------------------------------------------------------------------------|
G#|---------------------------------------------------------------------------|
C#|---------------------------------------------------------------------------|

D#|---------------------------------------------------------------------------|
A#|----7-----7-----7-----7-----9-----9-----9-----9----------------------------|
F#|-------9-----9-----9-----9-----9-----9-----9-----9-------------------------|
C#|---------------------------------------------------------------------------|
G#|---------------------------------------------------------------------------|
C#|---------------------------------------------------------------------------|

D#|---------------------------------------------------------------------------|
A#|----10----10----10----10----9-----9-----9-----9----------------------------|
F#|-------9-----9-----9-----9-----9-----9-----9-----9-------------------------|
C#|---------------------------------------------------------------------------|
G#|---------------------------------------------------------------------------|
C#|---------------------------------------------------------------------------|

D#|---------------------------------------------------------------------------|
A#|----12----12----12----12----10----10----10----10---------------------------|
F#|-------9-----9-----9-----9-----9-----9-----9-----9-------------------------|
C#|---------------------------------------------------------------------------|
G#|---------------------------------------------------------------------------|
C#|---------------------------------------------------------------------------|

D#|---------------------------------------------------------------------------|
A#|----7-----------9-----------12----------9----------------------------------|
F#|-------9-----9-----9-----9-----9-----9-----9-----9-------------------------|
C#|----------9-----------9-----------9-----------9----------------------------|
G#|---------------------------------------------------------------------------|
C#|---------------------------------------------------------------------------|
       *  *  *  *  *  *  *  *  *  *  *  *  *  *  *  *

D#|---------------------------------------------------------------------------|
A#|----7-----------7-----------7-----------7----------------------------------|
F#|-------9-----9-----9-----9-----9-----9-----9-----9-------------------------|
C#|----------9-----------9-----------11---------11----------------------------|
G#|---------------------------------------------------------------------------|
C#|---------------------------------------------------------------------------|
       *  *  *  *  *  *  *  *  *  *  *  *  *  *  *  *

D#|-------------------7--------7-----7--------------7-------------------------|
A#|----------------7----------------------------------------------------------|
F#|----9--------9--------9--9-----9-----9-----9-------------------------------|
C#|-------11-9-----------------------------11----9----------------------------|
G#|---------------------------------------------------------------------------|
C#|---------------------------------------------------------------------------|
       *  *  *  *  *  *  *  *  *  *  *  *  *  *  *  *

D#|---------------------------------------------------------------------------|
A#|---12-12-12-12-10-10-10-10-9--9--9--9--9--9--------------------------------|
F#|---9--9--9--9--9--9--9--9--9--9--9--9--9--9--------------------------------|
C#|---9--9--9--9--9--9--9--9--9--9--9--9--9--9--------------------------------|
G#|---------------------------------------------------------------------------|
C#|---------------------------------------------------------------------------| 





Bridge
1:43 - Rhythm
D#|---------------------------------------------------------------------------|
A#|---------------------------------------------------------------------------|
F#|----6--6--6--6--x--x--x--x--6--6--6--6--x--4-------------------------------|
C#|----6--6--6--6--x--x--x--x--6--6--6--6--x--4-------------------------------|
G#|----4--4--4--4--x--x--x--x--4--4--4--4--x--2-------------------------------|
C#|---------------------------------------------------------------------------|

D#|---------------------------------------------------------------------------|
A#|---------------------------------------------------------------------------|
F#|----2--2--2--2--x--x--x--x--2--2--2--2--x--4-------------------------------|
C#|----2--2--2--2--x--x--x--x--2--2--2--2--x--4-------------------------------|
G#|----0--0--0--0--x--x--x--x--0--0--0--0--x--2-------------------------------|
C#|---------------------------------------------------------------------------|

D#|---------------------------------------------------------------------------|
A#|---------------------------------------------------------------------------|
F#|----6--6--6--6--x--x--x--x--6--6--6--6--x--4-------------------------------|
C#|----6--6--6--6--x--x--x--x--6--6--6--6--x--4-------------------------------|
G#|----4--4--4--4--x--x--x--x--4--4--4--4--x--2-------------------------------|
C#|---------------------------------------------------------------------------|

D#|---------------------------------------------------------------------------|
A#|---------------------------------------------------------------------------|
F#|----2--2--2--2--x--x--x--x--2--2--2--2--x----------------------------------|
C#|----2--2--2--2--x--x--x--x--2--2--2--2--x----------------------------------|
G#|----0--0--0--0--x--x--x--x--0--0--0--0--x--2-------------------------------|
C#|-------------------------------------------2-------------------------------|
                                              *

D#|---------------------------------------------------------------------------|
A#|---------------------------------------------------------------------------|
F#|----6--6--6--6--------------6--6--6--6-----4-------------------------------|
C#|----6--6--6--6--------------6--6--6--6-----4-------------------------------|
G#|----4--4--4--4--------------4--4--4--4-----2-------------------------------|
C#|---------------------------------------------------------------------------|

D#|---------------------------------------------------------------------------|
A#|---------------------------------------------------------------------------|
F#|----2--2--2--2--------------2--2--2--2-------------------------------------|
C#|----2--2--2--2--------------2--2--2--2-----2-------------------------------|
G#|----0--0--0--0--------------0--0--0--0-----2-------------------------------|
C#|-------------------------------------------2-------------------------------|

D#|---------------------------------------------------------------------------|
A#|---------------------------------------------------------------------------|
F#|----6--6--6--6--------------6--6--6--6-----4-------------------------------|
C#|----6--6--6--6--------------6--6--6--6-----4-------------------------------|
G#|----4--4--4--4--------------4--4--4--4-----2-------------------------------|
C#|---------------------------------------------------------------------------|

D#|---------------------------------------------------------------------------|
A#|---------------------------------------------------------------------------|
F#|----2--2--2--2--------------2--2--2--2-----4-------------------------------|
C#|----2--2--2--2--------------2--2--2--2-----4-------------------------------|
G#|----0--0--0--0--------------0--0--0--0-----2-------------------------------|
C#|---------------------------------------------------------------------------|


1:43 - Lead
D#|---------------------------------------------------------------------------|
A#|---------------------------------------------------------------------------|
F#|----13-13-13-13-x--x--x--x--13-13-13-13-x--11------------------------------|
C#|----x--x--x--x--x--x--x--x--x--x--x--x--x--x-------------------------------|
G#|----11-11-11-11-x--x--x--x--11-11-11-11-x--9-------------------------------|
C#|---------------------------------------------------------------------------|

D#|---------------------------------------------------------------------------|
A#|---------------------------------------------------------------------------|
F#|----9--9--9--9--x--x--x--x--9--9--9--9--x--11------------------------------|
C#|----x--x--x--x--x--x--x--x--x--x--x--x--x--x-------------------------------|
G#|----7--7--7--7--x--x--x--x--7--7--7--7--x--9-------------------------------|
C#|---------------------------------------------------------------------------|

D#|---------------------------------------------------------------------------|
A#|---------------------------------------------------------------------------|
F#|----13-13-13-13-x--x--x--x--13-13-13-13-x--11------------------------------|
C#|----x--x--x--x--x--x--x--x--x--x--x--x--x--x-------------------------------|
G#|----11-11-11-11-x--x--x--x--11-11-11-11-x--9-------------------------------|
C#|---------------------------------------------------------------------------|

D#|---------------------------------------------------------------------------|
A#|---------------------------------------------------------------------------|
F#|----9--9--9--9--x--x--x--x--9--9--9--9-------------------------------------|
C#|----x--x--x--x--x--x--x--x--x--x--x--x-------------------------------------|
G#|----7--7--7--7--x--x--x--x--7--7--7--7-------------------------------------|
C#|---------------------------------------------------------------------------|



D#|---------------------------------------------------------------------------|
A#|---------------------------------------------------------------------------|
F#|----13-13-13-13-13-13-13-13-13-13-13-13-13-11-11-11------------------------|
C#|----x--x--x--x--x--x--x--x--x--x--x--x--x--x--x--x-------------------------|
G#|----11-11-11-11-11-11-11-11-11-11-11-11-11-9--9--9-------------------------|
C#|---------------------------------------------------------------------------|

D#|---------------------------------------------------------------------------|     
A#|---------------------------------------------------------------------------|
F#|----9--9--9--9--9--9--9--9--9--9--9--9--9--11-11-11------------------------|
C#|----x--x--x--x--x--x--x--x--x--x--x--x--x--x--x--x-------------------------|   x2
G#|----7--7--7--7--7--7--7--7--7--7--7--7--7--9--9--9-------------------------|
C#|---------------------------------------------------------------------------|





Pre Chorus
2:03 - Rhythm
D#|---------------------------------------------------------------------------|
A#|---------------------------------------------------------------------------|
F#|----------9----------------------------------------------------------------|
C#|----9--9--9----------------------------------------------------------------|
G#|----7--7--7----------------------------------------------------------------|
C#|---------------------------------------------------------------------------|
       *  *

D#|---------------------------------------------------------------------------|
A#|---------------------------------------------------------------------------|
F#|----------9----------(9\)--------------------------------------------------|
C#|----9--9--9----------(9\)--------------------------------------------------|
G#|----7--7--7----------(7\)--------------------------------------------------|
C#|---------------------------------------------------------------------------|
       *  *

D#|---------------------------------------------------------------------------|
A#|---------------------------------------------------------------------------|
F#|---------------------------------------------------------------------------|
C#|-------------------------4--4--4--4--6--6--6--6----------------------------|
G#|-------------------------4--4--4--4--7--7--7--7----------------------------|
C#|-------------------------4--4--4--4--6--6--6--6----------------------------|





Chorus
2:14 - Rhythm
D#|---------------------------------------------------------------------------|
A#|---------------------------------------------------------------------------|
F#|---------------------------------------------------------------------------|
C#|-------------------------2-----2--2-----2--2--2----------------------------|
G#|-------------------------2-----2--2-----2--2--2----------------------------|
C#|-------------------------2-----2--2-----2--2--2----------------------------|

D#|---------------------------------------------------------------------------|
A#|---------------------------------------------------------------------------|
F#|---------------------------------------------------------------------------|
C#|----6-----6-----6--6--6--4-----4--4-----4--4--4----------------------------|
G#|----7-----7-----7--7--7--4-----4--4-----4--4--4----------------------------|
C#|----6-----6-----6--6--6--4-----4--4-----4--4--4----------------------------|

D#|---------------------------------------------------------------------------|
A#|---------------------------------------------------------------------------|
F#|----2-----2-----2--2--2----------------------------------------------------|
C#|----2-----2-----2--2--2--2-----2--2-----2--2--2----------------------------|
G#|----0-----0-----0--0--0--2-----2--2-----2--2--2----------------------------|
C#|-------------------------2-----2--2-----2--2--2----------------------------|

D#|---------------------------------------------------------------------------|
A#|---------------------------------------------------------------------------|
F#|----6-----6-----6--6--6--4-----4--4-----4--4--4----------------------------|
C#|----6-----6-----6--6--6--4-----4--4-----4--4--4----------------------------|
G#|----4-----4-----4--4--4--2-----2--2-----2--2--2----------------------------|
C#|---------------------------------------------------------------------------|

D#|---------------------------------------------------------------------------|
A#|---------------------------------------------------------------------------|
F#|----------2-----2--2--2----------------------------------------------------|
C#|----------2-----2--2--2--2-----2--2-----2--2--2----------------------------|
G#|----------0-----0--0--0--2-----2--2-----2--2--2----------------------------|
C#|-------------------------2-----2--2-----2--2--2----------------------------|

D#|---------------------------------------------------------------------------|
A#|---------------------------------------------------------------------------|
F#|----4-----4-----4--4--4--6-----6--6-----6--6--6----------------------------|
C#|----4-----4-----4--4--4--6-----6--6-----6--6--6----------------------------|
G#|----2-----2-----2--2--2--4-----4--4-----4--4--4----------------------------|
C#|---------------------------------------------------------------------------|

D#|---------------------------------------------------------------------------|
A#|---------------------------------------------------------------------------|
F#|----2-----2-----2--2--2--2-----2--2-----2--2--2----------------------------|
C#|----2-----2-----2--2--2--2-----2--2-----2--2--2----------------------------|
G#|----0-----0-----0--0--0--0-----0--0-----0--0--0----------------------------|
C#|---------------------------------------------------------------------------|

D#|---------------------------------------------------------------------------|
A#|---------------------------------------------------------------------------|
F#|----4-----4-----4--4--4--4-----4--4----------------------------------------|
C#|----4-----4-----4--4--4--4-----4--4----6--6--6--6--------------------------|
G#|----2-----2-----2--2--2--2-----2--2----7--7--7--7--------------------------|
C#|---------------------------------------6--6--6--6--------------------------|

D#|---------------------------------------------------------------------------|
A#|---------------------------------------------------------------------------|
F#|----2-----2-----2--2--2--2-----2--2-----2--2--2----------------------------|
C#|----2-----2-----2--2--2--2-----2--2-----2--2--2----------------------------|
G#|----0-----0-----0--0--0--0-----0--0-----0--0--0----------------------------|
C#|---------------------------------------------------------------------------|

D#|---------------------------------------------------------------------------|
A#|---------------------------------------------------------------------------|
F#|----4-----4-----4--4--4--4-----4--4----4-----------------------------------|
C#|----4-----4-----4--4--4--4-----4--4----4--5--------------------------------|
G#|----2-----2-----2--2--2--2-----2--2----2--5--------------------------------|
C#|------------------------------------------5--------------------------------|


2:14 - Lead
D#|---------------------------------------------------------------------------|
A#|-------------------------9--------9-----9-----9----------------------------|
F#|-------------------------------9-----9-----9-----9-------------------------|
C#|---------------------------------------------------------------------------|
G#|---------------------------------------------------------------------------|
C#|---------------------------------------------------------------------------|

D#|---------------------------------------------------------------------------|
A#|----7-----7-----7-----7-----9-----9-----9-----9----------------------------|
F#|-------9-----9-----9-----9-----9-----9-----9-----9-------------------------|
C#|---------------------------------------------------------------------------|
G#|---------------------------------------------------------------------------|
C#|---------------------------------------------------------------------------|

D#|---------------------------------------------------------------------------|
A#|----10----10----10----10----9-----9-----9-----9----------------------------|
F#|-------9-----9-----9-----9-----9-----9-----9-----9-------------------------|
C#|---------------------------------------------------------------------------|
G#|---------------------------------------------------------------------------|
C#|---------------------------------------------------------------------------|

D#|---------------------------------------------------------------------------|
A#|----12----12----12----12----10----10----10----10---------------------------|
F#|-------9-----9-----9-----9-----9-----9-----9-----9-------------------------|
C#|---------------------------------------------------------------------------|
G#|---------------------------------------------------------------------------|
C#|---------------------------------------------------------------------------|

D#|---------------------------------------------------------------------------|
A#|----7-----------9-----------12----------9----------------------------------|
F#|-------9-----9-----9-----9-----9-----9-----9-----9-------------------------|
C#|----------9-----------9-----------9-----------9----------------------------|
G#|---------------------------------------------------------------------------|
C#|---------------------------------------------------------------------------|
       *  *  *  *  *  *  *  *  *  *  *  *  *  *  *  *

D#|---------------------------------------------------------------------------|
A#|----7-----------7-----------7-----------7----------------------------------|
F#|-------9-----9-----9-----9-----9-----9-----9-----9-------------------------|
C#|----------9-----------9-----------11---------11----------------------------|
G#|---------------------------------------------------------------------------|
C#|---------------------------------------------------------------------------|
       *  *  *  *  *  *  *  *  *  *  *  *  *  *  *  *

D#|-------------------7--------7-----7--------------7-------------------------|
A#|----------------7----------------------------------------------------------|
F#|----9--------9--------9--9-----9-----9-----9-------------------------------|
C#|-------11-9-----------------------------11----9----------------------------|
G#|---------------------------------------------------------------------------|
C#|---------------------------------------------------------------------------|
       *  *  *  *  *  *  *  *  *  *  *  *  *  *  *  *

D#|---------------------------------------------------------------------------|
A#|---12-12-12-12-10-10-10-10-9--9--9--9--9--9--------------------------------|
F#|---9--9--9--9--9--9--9--9--9--9--9--9--9--9--------------------------------|
C#|---9--9--9--9--9--9--9--9--9--9--9--9--9--9--------------------------------|
G#|---------------------------------------------------------------------------|
C#|---------------------------------------------------------------------------| 

D#|-------------------7--------7-----7--------------7-------------------------|
A#|----------------7----------------------------------------------------------|
F#|----9--------9--------9--9-----9-----9-----9-------------------------------|
C#|-------11-9-----------------------------11----9----------------------------|
G#|---------------------------------------------------------------------------|
C#|---------------------------------------------------------------------------|
       *  *  *  *  *  *  *  *  *  *  *  *  *  *  *  *

D#|---------------------------------------------------------------------------|
A#|---12-12-12-12-12-12-12-12-10-10-10-10-------------------------------------|
F#|---9--9--9--9--9--9--9--9--9--9--9--9--------------------------------------|
C#|---9--9--9--9--9--9--9--9--9--9--9--9--------------------------------------|
G#|---------------------------------------------------------------------------|
C#|---------------------------------------------------------------------------| 





Outro
2:38 - Rhythm
D#|---------------------------------------------------------------------------|
A#|---------------------------------------------------------------------------|
F#|---------------------------------------------------------------------------|
C#|----2-----------------------------2--------2-------------------------------|
G#|----2-----------------------------2--------2-------------------------------|
C#|----2-----------------------------2--------2-------------------------------|

D#|---------------------------------------------------------------------------|
A#|---------------------------------------------------------------------------|
F#|----x--x--6-----x--6-----2--2-----2--2--2--2--2--2-------------------------|
C#|----x--x--6-----x--6-----2--2-----2--2--2--2--2--2-------------------------|
G#|----x--x--4-----x--4-----0--0-----0--0--0--0--0--0-------------------------|
C#|---------------------------------------------------------------------------|

D#|---------------------------------------------------------------------------|
A#|---------------------------------------------------------------------------|
F#|---------------------------------------------------------------------------|
C#|----2-----------------------------2--------2-------------------------------|
G#|----2-----------------------------2--------2-------------------------------|
C#|----2-----------------------------2--------2-------------------------------|

D#|---------------------------------------------------------------------------|
A#|---------------------------------------------------------------------------|
F#|----x--x--6-----x--6--x--x--2----------------------------------------------|
C#|----x--x--6-----x--6--x--x--2----------------------------------------------|
G#|----x--x--4-----x--4--x--x--0----------------------------------------------|
C#|---------------------------------------------------------------------------|


2:38 - Lead
D#|---------------------------------------------------------------------------|
A#|---------------------------------------------------------------------------|
F#|----8--9--9--9--9--8--8--8--8--6--6--6--6--4--4--4-------------------------|
C#|----x--x--x--x--x--x--x--x--x--x--x--x--x--x--x--x-------------------------|
G#|----6--7--7--7--7--6--6--6--6--4--4--4--4--2--2--2-------------------------|
C#|---------------------------------------------------------------------------|

D#|---------------------------------------------------------------------------|
A#|---------------------------------------------------------------------------|
F#|----x--x--16-------16----11-11----11-11-11-13-13-13------------------------|
C#|----x--x--x--------x-----x--x-----x--x--x--x--x--x-------------------------|
G#|----x--x--14-------14----9--9-----9--9--9--11-11-11------------------------|
C#|---------------------------------------------------------------------------|

D#|---------------------------------------------------------------------------|
A#|---------------------------------------------------------------------------|
F#|----8--9--9--9--9--8--8--8--8--11-11-11-11-13-13-13------------------------|
C#|----x--x--x--x--x--x--x--x--x--x--x--x--x--x--x--x-------------------------|
G#|----6--7--7--7--7--6--6--6--6--9--9--9--9--11-11-11------------------------|
C#|---------------------------------------------------------------------------|

D#|---------------------------------------------------------------------------|
A#|---------------------------------------------------------------------------|
F#|----x--x--16-------16-x--x--13---------------------------------------------|
C#|----x--x--x--------x--x--x--x----------------------------------------------|
G#|----x--x--14-------14-x--x--11---------------------------------------------|
C#|---------------------------------------------------------------------------|




************************************
| *   Palm Mute
| x   Dead note
| g   Grace note
| (n) Ghost note
| h   Hammer-on
| p   Pull-off
| r   Release
| >   Accented note
| t   Tapping
| b   Bend
| br  Bend release
| pb  Pre-bend
| pbr Pre-bend release
| /   Slide up
| \   Slide down
| ~   Vibrato
| s   Slap
| P   Pop
| TR  Trill
| N   Tremolo

************************************

            
            
Suggest correction
Creating personal tab
Creating personal tab
You can edit any tab online and save it as your Personal.

You can edit, replace or remove any tab part or add personal notes – all changes will be seen only by you.

Personal tabs can be accessed anytime from any device, even offline.
Learn more »
Give kudos to tab author, rate the tab!
1 2 3 4 5
comments
print report bad tab
guest
You may want to rate the tab now too:
select rating
Wanna post a correction for this tab? Suggest correction