Oops, an error
Loading. Please wait.

Losing Myself Bass Tab

version 1
version 1

Whole song

Interactive

175 views 36 this week
no commentswrite comment
1 2 3 4 5
3 more votes to show rating
add to favorites
launch autoscroll
font size
0
reset
guitar tuner
Autoscroll
slow
fast
+/-
esc
set tempo
stop
Help us to improve Ultimate-Guitar.com Take our survey!
×
Author
Tuning
C# G# C# F# A# D#
So this is a tab I based on the second/rhythm guitar on the song, I think some fills are missing but overall 
pretty solid tab.


[Intro]

(0:03)
Guitar

(0:10)
F#|---------------------------------------------------------------------------|
C#|---------------------------------------------------------------------------|
G#|---------------------------------------------------------------------------|
C#|----9----9--9----9--9--------9--9----9--9--9--9----------------------------|

F#|---------------------------------------------------------------------------|
C#|---------------------------------------------------------------------------|
G#|---------------------------------------------------------------------------|
C#|----4----4--4----4--4--------4--4----4--4--4--4----------------------------|


F#|---------------------------------------------------------------------------|
C#|---------------------------------------------------------------------------|  
G#|---------------------------------------------------------------------------|
C#|----2--2-------------------2--2-----2--2-----------------------------------|(x2)
       *  *                   *  *     *  *

F#|---------------------------------------------------------------------------|
C#|---------------------------------------------------------------------------|
G#|---------------------------------------------------------------------------|
C#|----9----9--9----9--9--------9--9----9--9--9--9----------------------------|

F#|---------------------------------------------------------------------------|
C#|---------------------------------------------------------------------------|
G#|---------------------------------------------------------------------------|
C#|----4----4--4----4--4--------4--4----4--4--4--4----------------------------|


[Pre-Chorus]

(0:21)
F#|---------------------------------------------------------------------------|
C#|---------------------------------------------------------------------------|
G#|----6----6-----------------------------------------------------------------|
C#|--------------------4----4-----------9~------------------------------------|


[Chorus]

(0:25)
F#|---------------------------------------------------------------------------|
C#|---------------------------------------------------------------------------|
G#|-------------------------------------2-------------------------------------|
C#|----2--------2--------2----2----2------------------------------------------|

F#|---------------------------------------------------------------------------|
C#|---------------------------------------------------------------------------|
G#|--------2----2--------2----2----2-----------------------------------------|
C#|-------------------------------------0-------------------------------------|
                                        *
F#|---------------------------------------------------------------------------|
C#|---------------------------------------------------------------------------|
G#|---------------------------------------------------------------------------|
C#|----6--------6--------6----9----0----4-------------------------------------|
                                   *
F#|---------------------------------------------------------------------------|   
C#|---------------------------------------------------------------------------|  
G#|---------------------------------------------------------------------------|
C#|--------4----4--------4----6----6----6-------------------------------------|(x2)
(0:40)
F#|---------------------------------------------------------------------------|
C#|---------------------------------------------------------------------------|
G#|---------------------------------------------------------------------------|
C#|----2~-----------------------------------------4~--------------------------|


[Intro]

(0:43)
Guitar

(0:50)
F#|---------------------------------------------------------------------------|
C#|---------------------------------------------------------------------------|
G#|---------------------------------------------------------------------------|
C#|----9----9--9----9--9--------9--9----9--9--9--9----------------------------|

F#|---------------------------------------------------------------------------|
C#|---------------------------------------------------------------------------|
G#|---------------------------------------------------------------------------|
C#|----4----4--4----4--4--------4--4----4--4--4--4----------------------------|


F#|---------------------------------------------------------------------------|
C#|---------------------------------------------------------------------------|  
G#|---------------------------------------------------------------------------|
C#|----2--2-------------------2--2-----2--2-----------------------------------|(x2)
       *  *                   *  *     *  *
   
F#|---------------------------------------------------------------------------|
C#|---------------------------------------------------------------------------|
G#|---------------------------------------------------------------------------|
C#|----9----9--9----9--9--------9--9----9--9--9--9----------------------------|

F#|---------------------------------------------------------------------------|
C#|---------------------------------------------------------------------------|
G#|---------------------------------------------------------------------------|
C#|----4----4--4----4--4--------4--4----4--4--4--4----------------------------|


[Pre-Chorus]

(1:02)
F#|----4---------4---------4---------4---------4------------------------------|
C#|---------4---------4---------4---------4-----------------------------------|
G#|---------------------------------------------------------------------------|
C#|---------------------------------------------------------------------------|

F#|----4---------4---------4---------4---------4------------------------------|
C#|---------4---------4---------4---------4-----------------------------------|
G#|---------------------------------------------------------------------------|
C#|---------------------------------------------------------------------------|

F#|----4---------4---------4---------4---------4------------------------------|
C#|---------4---------4---------4---------4-----------------------------------|
G#|---------------------------------------------------------------------------|
C#|---------------------------------------------------------------------------|

F#|---------------------------------------------------------------------------|
C#|----4----4----4----4----4\-------------------------------------------------|
G#|---------------------------------------------------------------------------|
C#|---------------------------------------------------------------------------|


[Chorus]

(1:09)
F#|---------------------------------------------------------------------------|
C#|---------------------------------------------------------------------------|
G#|-------------------------------------2-------------------------------------|
C#|----2--------2--------2----2----2------------------------------------------|

F#|---------------------------------------------------------------------------|
C#|---------------------------------------------------------------------------|
G#|--------2----2--------2----2----2------------------------------------------|
C#|-------------------------------------0-------------------------------------|
                                        *
F#|---------------------------------------------------------------------------|
C#|---------------------------------------------------------------------------|
G#|---------------------------------------------------------------------------|
C#|----6--------6--------6----9----0----4-------------------------------------|
                                   *
F#|---------------------------------------------------------------------------|   
C#|---------------------------------------------------------------------------|   
G#|---------------------------------------------------------------------------|
C#|--------4----4--------4----6----6----6-------------------------------------|(x4)


(1:39)
F#|---------------------------------------------------------------------------|
C#|---------------------------------------------------------------------------|
G#|---------------------------------------------------------------------------|
C#|----2~-----------------------------------------4~--------------------------|


[Bridge]

(1:42)
F#|---------------------------------------------------------------------------|
C#|---------------------------------------------------------------------------|
G#|---------------------------------------------------------------------------|
C#|----6----6----6--------6~--------------------------------------------------|

F#|---------------------------------------------------------------------------|
C#|---------------------------------------------------------------------------|
G#|----7----7----7--------7~--------------------------------------------------|
C#|---------------------------------------------------------------------------|


F#|---------------------------------------------------------------------------|
C#|---------------------------------------------------------------------------|
G#|---------------------------------------------------------------------------|
C#|----9----9----9----9----9----9----9----9-----------------------------------|

F#|---------------------------------------------------------------------------|
C#|---------------------------------------------------------------------------|
G#|---------------------------------------------------------------------------|
C#|---------9----9----9----9----9----9----9-----------------------------------|

F#|---------------------------------------------------------------------------|
C#|---------------------------------------------------------------------------|
G#|---------------------------------------------------------------------------|
C#|----8----8----8----8----8----8----8----4-----------------------------------|

F#|---------------------------------------------------------------------------|
C#|---------------------------------------------------------------------------|
G#|---------------------------------------------------------------------------|
C#|---------4----4----4----4----4----4----4-----------------------------------|


F#|---------------------------------------------------------------------------|
C#|---------------------------------------------------------------------------|
G#|---------------------------------------------------------------------------|
C#|----6----6----6--------6~--------------------------------------------------|

F#|---------------------------------------------------------------------------|
C#|---------------------------------------------------------------------------|
G#|----7----7----7--------7~--------------------------------------------------|
C#|---------------------------------------------------------------------------|

F#|---------------------------------------------------------------------------|
C#|---------------------------------------------------------------------------|
G#|---------------------------------------------------------------------------|
C#|----9----9----9----9----9----9----9----9-----------------------------------|

F#|---------------------------------------------------------------------------|
C#|---------------------------------------------------------------------------|
G#|---------------------------------------------------------------------------|
C#|---------9----9----9----9----9----9----9-----------------------------------|

F#|---------------------------------------------------------------------------|
C#|---------------------------------------------------------------------------|
G#|---------------------------------------4-----------------------------------|
C#|----8----8----8----8----8----8----8----------------------------------------|

F#|---------------------------------------------------------------------------|
C#|---------------------------------------------------------------------------|
G#|---------4----4----4----4--------------------------------------------------|
C#|-----------------------------4----4----5-----------------------------------|


[Pre-Chorus] 

(2:12) 
Guitar


[Chorus] 

(2:19)
F#|---------------------------------------------------------------------------|
C#|---------------------------------------------------------------------------|
G#|-------------------------------------2-------------------------------------|
C#|----2--------2--------2----2----2------------------------------------------|

F#|---------------------------------------------------------------------------|
C#|---------------------------------------------------------------------------|
G#|--------2----2--------2----2----2-----------------------------------------|
C#|-------------------------------------0-------------------------------------|
                                        *
F#|---------------------------------------------------------------------------|
C#|---------------------------------------------------------------------------|
G#|---------------------------------------------------------------------------|
C#|----6--------6--------6----9----0----4-------------------------------------|
                                   *
F#|---------------------------------------------------------------------------|   
C#|---------------------------------------------------------------------------|   
G#|---------------------------------------------------------------------------|
C#|--------4----4--------4----6----6----6-------------------------------------|(x4)


(2:49)
F#|---------------------------------------------------------------------------|
C#|---------------------------------------------------------------------------|
G#|---------------------------------------------------------------------------|
C#|----2~-----------------------------------------4~--------------------------|



[Outro] 

(2:53)
F#|---------------------------------------------------------------------------|
C#|---------------------------------------------------------------------------|
G#|----11---11-------13---13-------13---14~-----------------------------------|
C#|---------------------------------------------------------------------------|



************************************

| \  Slide down
| ~  Vibrato

************************************
Suggest correction
Give kudos to tab author, rate the tab!
1 2 3 4 5
comments
print report bad tab
guest
You may want to rate the tab now too:
select rating
Wanna post a correction for this tab? Suggest correction