Oops, an error
Loading. Please wait.

Nothings Wrong Tab

version 1
version 1

Whole song

Interactive

751 views 327 this week
no commentswrite comment
1 2 3 4 5
3 more votes to show rating
add to favorites
launch autoscroll
font size
0
reset
how to read this tab
guitar tuner
Autoscroll
slow
fast
+/-
esc
set tempo
stop
Help us to improve Ultimate-Guitar.com Take our survey!
×
Author
Difficulty
Tuning
novice
C# G# C# F# A# D#
State Champs - Nothing’s Wrong | Tuning - Drop C#


*This song is super easy and fun to play (as most pop punk songs are) If there are any mistakes please let me 
know so I can correct them. 

[Lead Intro/Chorus Pt. 1] - 
D#|-----------------------|-----------------------| -     
A#|------------10-9-------|---------------9-----9-|  |   
F#|------9--------------9-|------9-----11---------|  | 3x
C#|-9-9----9---------9----|-9-9----9---------9----|  |   
G#|-----------------------|-----------------------|  |  
C#|-----------------------|-----------------------| -  
    * *    *         *      * *    *         *

[Lead Intro/Chorus Pt. 2] - 
D#|----------------------------| -      |----------------|
A#|---------9--10--9-----------|  |     |----------------|
F#|-9----9-------------11-9-11-|  |     |-9--------------|
C#|---9------------------------|  | 3x  |---9-9---9-11-9-|
G#|----------------------------|  |     |----------------|
C#|----------------------------| -      |----------------|


[Rhythm Intro/Chorus Pt. 1] - 
D#|-----------------------|------------------------------|
A#|-----------------------|------------------------------|
F#|-4------6-------2------|-4-------6-------2------------|
C#|-4-x8---6--x8---2--x16-|-4--x8---6--x8---2--x8--2-----|
G#|-2------4-------0------|-2-------4-------0------2--x8-|
C#|-----------------------|------------------------2-----|

[Rhythm Intro/Chorus Pt. 2] - 
D#|--------------------|------------------|--------------------|-------------------|
A#|--------------------|------------------|--------------------|-------------------|
F#|-4-4--44-6--666-666-|-2-2--222-222-222-|-4-4--44-6--666-666-|-2-2--22-----------|
C#|-4-4--44-6--666-666-|-2-2--222-222-222-|-4-4--44-6--666-666-|-2-2--22-2-222-222-|
G#|-2-2--22-4--444-444-|-0-0--000-000-000-|-2-2--22-4--444-444-|-0-0--00-2-222-222-|
C#|--------------------|------------------|--------------------|---------2-222-222-|


[Both Verse] - Play whole thing 2x
D#|---------------|----------------|
A#|---------------|----------------|
F#|-44--44--66-66-|-22--22---------|
C#|-44--44--66-66-|-22--22--22--22-|
G#|-22--22--44-44-|-00--00--22--22-|
C#|---------------|---------22--22-|


[Lead Pre Chorus Pt. 1] -
D#|----0~-----0~-|----0~-----0~-|----0~----------0~--|
A#|----0~-----0~-|----0~-----0~-|----0~----------0~--|
F#|-88-8~--88-8~-|-44-4~--66-6~-|-88-8~---11-11--11~-|
C#|--------------|--------------|--------------------|
G#|--------------|--------------|--------------------|
C#|--------------|--------------|--------------------|
    **     **      **     **      **      *  *  


[Rhythm Pre Chorus Pt. 1]- Play whole thing 2x
D#|--------------|--------------|
A#|--------------|--------------|
F#|-44-4~--66-6~-|-22-2~--------|
C#|-44-4~--66-6~-|-22-2~--44-4~-|
G#|-22-2~--44-4~-|-00-0~--22-2~-|
C#|--------------|--------22-2~-|  
    **     **     **     **  


[Both Pre Chorus Pt. 2] - 
D#|-------------------------|
A#|-------------------------|
F#|---------66--22----------|
C#|-22--44--66--22----------|
G#|-22--44--44--00--2-4-2-0-|
C#|-22--44------------------|


[Lead Intro/Chorus Pt. 1] - 
D#|-----------------------|-----------------------| -     
A#|------------10-9-------|---------------9-----9-|  |   
F#|------9--------------9-|------9-----11---------|  | 3x
C#|-9-9----9---------9----|-9-9----9---------9----|  |   
G#|-----------------------|-----------------------|  |  
C#|-----------------------|-----------------------| -  
    * *    *         *      * *    *         *

[Lead Intro/Chorus Pt. 2] - 
D#|----------------------------| -      |----------------|
A#|---------9--10--9-----------|  |     |----------------|
F#|-9----9-------------11-9-11-|  |     |-9--------------|
C#|---9------------------------|  | 3x  |---9-9---9-11-9-|
G#|----------------------------|  |     |----------------|
C#|----------------------------| -      |----------------|


[Rhythm Intro/Chorus Pt. 1]- 
D#|-----------------------|------------------------------|
A#|-----------------------|------------------------------|
F#|-4------6-------2------|-4-------6-------2------------|
C#|-4-x8---6--x8---2--x16-|-4--x8---6--x8---2--x8--2-----|
G#|-2------4-------0------|-2-------4-------0------2--x8-|
C#|-----------------------|------------------------2-----|

[Rhythm Intro/Chorus Pt. 2] - 
D#|--------------------|------------------|--------------------|-------------------|
A#|--------------------|------------------|--------------------|-------------------|
F#|-4-4--44-6--666-666-|-2-2--222-222-222-|-4-4--44-6--666-666-|-2-2--22-----------|
C#|-4-4--44-6--666-666-|-2-2--222-222-222-|-4-4--44-6--666-666-|-2-2--22-2-222-222-|
G#|-2-2--22-4--444-444-|-0-0--000-000-000-|-2-2--22-4--444-444-|-0-0--00-2-222-222-|
C#|--------------------|------------------|--------------------|---------2-222-222-|


[Both Verse] - Play whole thing 2x
D#|---------------|----------------|
A#|---------------|----------------|
F#|-44--44--66-66-|-22--22---------|
C#|-44--44--66-66-|-22--22--22--22-|
G#|-22--22--44-44-|-00--00--22--22-|
C#|---------------|---------22--22-|


[Lead Pre Chorus Pt. 1] -
D#|----0~-----0~-|----0~-----0~-|----0~----------0~--|
A#|----0~-----0~-|----0~-----0~-|----0~----------0~--|
F#|-88-8~--88-8~-|-44-4~--66-6~-|-88-8~---11-11--11~-|
C#|--------------|--------------|--------------------|
G#|--------------|--------------|--------------------|
C#|--------------|--------------|--------------------|
    **     **      **     **      **      *  *  


[Rhythm Pre Chorus Pt. 1] - Play whole thing 2x
D#|--------------|--------------|
A#|--------------|--------------|
F#|-44-4~--66-6~-|-22-2~--------|
C#|-44-4~--66-6~-|-22-2~--44-4~-|
G#|-22-2~--44-4~-|-00-0~--22-2~-|
C#|--------------|--------22-2~-|  
    **     **     **     **  


[Both Pre Chorus Pt. 2] - 
D#|-------------------------|
A#|-------------------------|
F#|---------66--22----------|
C#|-22--44--66--22----------|
G#|-22--44--44--00--2-4-2-0-|
C#|-22--44------------------|


[Lead Intro/Chorus Pt. 1] - 
D#|-----------------------|-----------------------| -     
A#|------------10-9-------|---------------9-----9-|  |   
F#|------9--------------9-|------9-----11---------|  | 3x
C#|-9-9----9---------9----|-9-9----9---------9----|  |   
G#|-----------------------|-----------------------|  |  
C#|-----------------------|-----------------------| -  
    * *    *         *      * *    *         *

[Lead Intro/Chorus Pt. 2] - 
D#|----------------------------| -      |----------------|
A#|---------9--10--9-----------|  |     |----------------|
F#|-9----9-------------11-9-11-|  |     |-9--------------|
C#|---9------------------------|  | 3x  |---9-9---9-11-9-|
G#|----------------------------|  |     |----------------|
C#|----------------------------| -      |----------------|


[Rhythm Intro/Chorus Pt. 1] - 
D#|-----------------------|------------------------------|
A#|-----------------------|------------------------------|
F#|-4------6-------2------|-4-------6-------2------------|
C#|-4-x8---6--x8---2--x16-|-4--x8---6--x8---2--x8--2-----|
G#|-2------4-------0------|-2-------4-------0------2--x8-|
C#|-----------------------|------------------------2-----|

[Rhythm Intro/Chorus Pt. 2] - 
D#|--------------------|------------------|--------------------|-------------------|
A#|--------------------|------------------|--------------------|-------------------|
F#|-4-4--44-6--666-666-|-2-2--222-222-222-|-4-4--44-6--666-666-|-2-2--22-----------|
C#|-4-4--44-6--666-666-|-2-2--222-222-222-|-4-4--44-6--666-666-|-2-2--22-2-222-222-|
G#|-2-2--22-4--444-444-|-0-0--000-000-000-|-2-2--22-4--444-444-|-0-0--00-2-222-222-|
C#|--------------------|------------------|--------------------|---------2-222-222-|

[Lead Post Chorus] - 
D#|---------------------------------------------|
A#|---------------------------------------------|
F#|-6-------8/-9-9-9-9-9-9-9--13-13--11-11--9-9-|
C#|-x--x12--x--x-x-x-x-x-x-x--x--x---x--x---x-x-|
G#|-4-------6/-7-7-7-7-7-7-7--11-11--9--9---7-7-|
C#|---------------------------------------------|

[Lead Bridge] - Play whole thing 4x             Then...
D#|---------------|-----------------|           |------------------|
A#|---------------|-----------------|           |------------------|
F#|----9-9-9--9-8-|----9-9-9--99-11-|           |-9~--16~--8~---6~-|
C#|-2--x-x-x--x-x-|-7--x-x-x--xx-x--|           |-x---x----x----x--|
G#|-2--7-7-7--7-6-|-7--7-7-7--77-9--|           |-7~--14~--6~---4~-|
C#|-2-------------|-7---------------|           |------------------|


[Rhythm Post Chorus] -             Play this part 4x                  Then...
D#|--------------------|           |--------------|----------------|  |----------|------|
A#|--------------------|           |--------------|----------------|  |----------|------|
F#|--------------------|           |--------------|----------------|  |-6~---9~--|-2~---|
C#|-4-------6/--7------|           |-2--2-2-2--22-|-7--7-7-7--77-9-|  |-6~---9~--|-2~---|
G#|-4--x12--6/--7--x13-|           |-2--2-2-2--22-|-7--7-7-7--77-9-|  |-4~---7~--|-0~---|
C#|-4-------6/--7------|           |-2--2-2-2--22-|-7--7-7-7--77-9-|  |----------|------|


[Lead Pre Chorus 2] - Play whole thing 2x 
D#|---------------------------------|---------------------------------|
A#|---------------------------------|---------------------------------|
F#|-9-----------9-----------9-------|-11----------11----------11------|
C#|-x-----------x-----------x-------|-x-----------x-----------x-------|
G#|-7-7-7-7-7-7-7-7-7-7-7-7-7-7-7-7-|-9-9-9-9-9-9-9-9-9-9-9-9-9-9-9-9-|
C#|---------------------------------|---------------------------------|
      * * * * *   * * * * *   * * *     * * * * *   * * * * *   * * * 

D#|-------------------------------------------------|
A#|-------------------------------------------------|
F#|-13----------------13----------------13----------|
C#|-x-----------------x-----------------x-----------|
G#|-11-11-11-11-11-11-11-11-11-11-11-11-11-11-11-11-|
C#|-------------------------------------------------|
       *  *  *  *  *     *  *  *  *  *     *  *  *

D#|-------------------------------------------------|
A#|-------------------------------------------------|
F#|-16----------------16----------------16----------|
C#|-x-----------------x-----------------x-----------|
G#|-14-14-14-14-14-14-14-14-14-14-14-14-14-14-14-14-|
C#|-------------------------------------------------|
       *  *  *  *  *     *  *  *  *  *     *  *  *


[Rhythm Pre Chorus 2] - 
D#|-----------------|-----------------|---------------------------------|
A#|-----------------|-----------------|---------------------------------|
F#|-4-----4-----4---|-6-----6-----6---|-2-----2-----2---2-----2-----2---|
C#|-4-4-4-4-4-4-4-4-|-6-6-6-6-6-6-6-6-|-2-2-2-2-2-2-2-2-2-2-2-2-2-2-2-2-|
G#|-2-2-2-2-2-2-2-2-|-4-4-4-4-4-4-4-4-|-0-0-0-0-0-0-0-0-0-0-0-0-0-0-0-0-|
C#|-----------------|-----------------|---------------------------------|
      * *   * *   *     * *   * *   *     * *   * *   *   * *   * *   *


D#|-----------------|-----------------|-----------------|-----------------|
A#|-----------------|-----------------|-----------------|-----------------|
F#|-4-----4-----4---|-6-----6-----6---|-2-----2-----2---|-----------------|
C#|-4-4-4-4-4-4-4-4-|-6-6-6-6-6-6-6-6-|-2-2-2-2-2-2-2-2-|-2-----2-----2---|
G#|-2-2-2-2-2-2-2-2-|-4-4-4-4-4-4-4-4-|-0-0-0-0-0-0-0-0-|-2-2-2-2-2-2-2-2-|
C#|-----------------|-----------------|-----------------|-2-2-2-2-2-2-2-2-|
      * *   * *   *     * *   * *   *     * *   * *   *     * *   * *   *


[Lead Intro/Chorus Pt. 1] - 
D#|-----------------------|-----------------------| -     
A#|------------10-9-------|---------------9-----9-|  |   
F#|------9--------------9-|------9-----11---------|  | 3x
C#|-9-9----9---------9----|-9-9----9---------9----|  |   
G#|-----------------------|-----------------------|  |  
C#|-----------------------|-----------------------| -  
    * *    *         *      * *    *         *

[Lead Intro/Chorus Pt. 2] - 
D#|----------------------------| -      |----------------|
A#|---------9--10--9-----------|  |     |----------------|
F#|-9----9-------------11-9-11-|  |     |-9--------------|
C#|---9------------------------|  | 3x  |---9-9---9-11-9-|
G#|----------------------------|  |     |----------------|
C#|----------------------------| -      |----------------|


[Rhythm Intro/Chorus Pt. 1] - 
D#|-----------------------|------------------------------|
A#|-----------------------|------------------------------|
F#|-4------6-------2------|-4-------6-------2------------|
C#|-4-x8---6--x8---2--x16-|-4--x8---6--x8---2--x8--2-----|
G#|-2------4-------0------|-2-------4-------0------2--x8-|
C#|-----------------------|------------------------2-----|


[Rhythm Intro/Chorus Pt. 2] - 
D#|--------------------|------------------|--------------------|-------------------|
A#|--------------------|------------------|--------------------|-------------------|
F#|-4-4--44-6--666-666-|-2-2--222-222-222-|-4-4--44-6--666-666-|-2-2--22-----------|
C#|-4-4--44-6--666-666-|-2-2--222-222-222-|-4-4--44-6--666-666-|-2-2--22-2-222-222-|
G#|-2-2--22-4--444-444-|-0-0--000-000-000-|-2-2--22-4--444-444-|-0-0--00-2-222-222-|
C#|--------------------|------------------|--------------------|---------2-222-222-|

[Lead Outro] -                          [Rhythm Outro] - 
D#|---------------|                     |---------------|
A#|---------------|                     |---------------|
F#|-9~---16~---9~-|                     |-6~---9~---2~--|
C#|-x----x-----x--|                     |-6~---9~---2~--|
G#|-7~---14~---7~-|                     |-4~---7~---0~--|
C#|---------------|                     |---------------|


************************************


| x   Dead note
| ~   Let ring
| /   Slide up
| *  Palm muted


************************************


Suggest correction
Give kudos to tab author, rate the tab!
1 2 3 4 5
comments
print report bad tab
guest
You may want to rate the tab now too:
select rating
Wanna post a correction for this tab? Suggest correction