Oops, an error
Loading. Please wait.

Perfect Score tab

version 1
version 1

Whole song

Interactive

1,537 views 3 this week
no commentswrite comment
1 2 3 4 5
1 last vote to show rating
add to favorites
×
Save as Personal and add changes to this tab that will be seen only by you. Learn more ›
×
You can save this tab as Personal to edit and correct it or add notes. All changes will be seen only by you. Learn more »
launch autoscroll
font size
0
reset
how to read this tab
guitar tuner
edit
Autoscroll
slow
fast
+/-
esc
set tempo
stop
-------------------------------------------------------------------------------
                           State Champs - Perfect Score
-------------------------------------------------------------------------------
Tabbed by: scottismad
E-mail: scott.simpson@hotmail.com.au

Tuning: Drop C#


Verse
0:08 - Rhythm
D#|---------------------------------------------------------------------------|
A#|---------------------------------------------------------------------------|
F#|---------------------------------------------------------------------------|
C#|---------------------------------------------------------------------------|
G#|----7--9--9--9--9--9--9--9--9--9--7-----7--7--9----------------------------|
C#|----0--0--0--0--0--0--0--0--0--0--0-----0--0--0----------------------------|
             *  *  *  *  *  *  *  *        *  *

D#|---------------------------------------------------------------------------|
A#|---------------------------------------------------------------------------|
F#|---------------------------------------------------------------------------|
C#|---------------------------------------------------------------------------|
G#|----9--9--9--9--9--9--9--9--9--9--7-----7--7--7--7-------------------------|
C#|----0--0--0--0--0--0--0--0--0--0--0-----0--0--0--0-------------------------|
       *  *  *  *  *  *  *  *  *  *        *  *  *  *

D#|---------------------------------------------------------------------------|
A#|---------------------------------------------------------------------------|
F#|---------------------------------------------------------------------------|
C#|---------------------------------------------------------------------------|
G#|----7--9--9--9--9--9--9--9--9--9--7-----7--7--9----------------------------|
C#|----5--5--5--5--5--5--5--5--5--5--5-----5--5--5----------------------------|
             *  *  *  *  *  *  *  *        *  *

D#|---------------------------------------------------------------------------|
A#|---------------------------------------------------------------------------|
F#|---------------------------------------------------------------------------|
C#|---------------------------------------------------------------------------|
G#|----9--9--9--9--9--9--9--9--9--9--7-----7--7--7--7-------------------------|
C#|----5--5--5--5--5--5--5--5--5--5--5-----5--5--5--5-------------------------|
       *  *  *  *  *  *  *  *  *  *        *  *  *  *

D#|---------------------------------------------------------------------------|
A#|---------------------------------------------------------------------------|
F#|---------------------------------------------------------------------------|
C#|---------------------------------------------------------------------------|
G#|----7--9--9--9--9--9--9--9--9--9--7-----7--7--9----------------------------|
C#|----0--0--0--0--0--0--0--0--0--0--0-----0--0--0----------------------------|
             *  *  *  *  *  *  *  *        *  *

D#|---------------------------------------------------------------------------|
A#|---------------------------------------------------------------------------|
F#|---------------------------------------------------------------------------|
C#|---------------------------------------------------------------------------|
G#|----9--9--9--9--9--9--9--9--9--9--7-----7--7--7--7-------------------------|
C#|----0--0--0--0--0--0--0--0--0--0--0-----0--0--0--0-------------------------|
       *  *  *  *  *  *  *  *  *  *        *  *  *  *

D#|---------------------------------------------------------------------------|
A#|---------------------------------------------------------------------------|
F#|---------------------------------------------------------------------------|
C#|---------------------------------------------------------------------------|
G#|----7--9--9--9--9--9--9--9--9--9--7-----7--7--9----------------------------|
C#|----5--5--5--5--5--5--5--5--5--5--5-----5--5--5----------------------------|
             *  *  *  *  *  *  *  *        *  *

D#|---------------------------------------------------------------------------|
A#|---------------------------------------------------------------------------|
F#|---------------------------------------------------------------------------|
C#|---------------------------------------------------------------------------|
G#|----9--9--9--9-----9--9-----9-----9-----9--9--9--9-------------------------|
C#|----5--5--5--5-----5--5-----5-----5-----5--5--5--5-------------------------|
       *  *  *

0:08 - Lead
D#|---------------------------------------------------------------------------|
A#|---------------------------------------------------------------------------|
F#|----14-14-14-14-14-14-14-14----14-14-14-14-14-14-14------------------------|
C#|----x--x--x--x--x--x--x--x-----x--x--x--x--x--x--x-------------------------|  x7
G#|----12-12-12-12-12-12-12-12----12-12-12-12-12-12-12------------------------|
C#|---------------------------------------------------------------------------|

D#|---------------------------------------------------------------------------|
A#|---------------------------------------------------------------------------|
F#|----------------------------9/11--14----11h9h11h9h11h9h11h9----------------|
C#|----------------------12---------------------------------------------------|
G#|---------------------------------------------------------------------------|
C#|---------------------------------------------------------------------------|





Pre Chorus
0:26 - Rhythm
D#|---------------------------------------------------------------------------|
A#|---------------------------------------------------------------------------|
F#|---------------------------------------------------------------------------|
C#|---------------------------------------------------------------------------|
G#|----7--9--9--9--9--9--9--9--9--9--7-----7--7--7--9-------------------------|
C#|----0--0--0--0--0--0--0--0--0--0--0-----0--0--0--0-------------------------|
             *  *  *  *  *  *  *  *        *  *

D#|---------------------------------------------------------------------------|
A#|---------------------------------------------------------------------------|
F#|---------------------------------------------------------------------------|
C#|---------------------------------------------------------------------------|
G#|-------9--9--9--9--9--9--9--9--9--7-----7--7--7--7-------------------------|
C#|-------0--0--0--0--0--0--0--0--0--0-----0--0--0--0-------------------------|
                *  *  *  *  *  *  *        *  *  *  *

D#|---------------------------------------------------------------------------|
A#|---------------------------------------------------------------------------|
F#|---------------------------------------------------------------------------|
C#|---------------------------------------------------------------------------|
G#|----9-----9--9--9--9--9--9--9--9--7-----7--7--7--9-------------------------|
C#|----5-----5--5--5--5--5--5--5--5--5-----5--5--5--5-------------------------|
             *  *  *  *  *  *  *  *        *  *

D#|---------------------------------------------------------------------------|
A#|---------------------------------------------------------------------------|
F#|---------------------------------------------------------------------------|
C#|---------------------------------------------------------------------------|
G#|-------9--9--9--9--9--9--9--9--9--7-----7--7--7--7-------------------------|
C#|-------5--5--5--5--5--5--5--5--5--5-----5--5--5--5-------------------------|
                *  *  *  *  *  *  *        *  *  *  *

D#|---------------------------------------------------------------------------|
A#|---------------------------------------------------------------------------|
F#|---------------------------------------------------------------------------|
C#|---------------------------------------------------------------------------|
G#|----7--9--9--9--9--9--9--9--9--9--7-----7--7--7--9-------------------------|
C#|----0--0--0--0--0--0--0--0--0--0--0-----0--0--0--0-------------------------|
             *  *  *  *  *  *  *  *        *  *

D#|---------------------------------------------------------------------------|
A#|---------------------------------------------------------------------------|
F#|---------------------------------------------------------------------------|
C#|---------------------------------------------------------------------------|
G#|-------9--9--9--9--9--9--9--9--9--7-----7--7--7--7-------------------------|
C#|-------0--0--0--0--0--0--0--0--0--0-----0--0--0--0-------------------------|
                *  *  *  *  *  *  *        *  *  *  *

D#|---------------------------------------------------------------------------|
A#|---------------------------------------------------------------------------|
F#|---------------------------------------------------------------------------|
C#|----------------------------------7----------------------------------------|
G#|----9--9--9--9--9-----9--9--9--9--5-----------7----------------------------|
C#|----9--9--9--9--9-----9--9--9--9--------------7----------------------------|
       *  *  *  *        *  *  *  *

D#|---------------------------------------------------------------------------|
A#|---------------------------------------------------------------------------|
F#|---------------------------------------------------------------------------|
C#|---------------------------------------------------------------------------|
G#|----------7-----7-----7-----7-----7-----7----------------------------------|
C#|----------7-----7-----7-----7-----7-----7----------------------------------|


0:26 - Lead
D#|---------------------------------------------------------------------------|
A#|----------------------10---------------------------------------------------|
F#|----------7-----------------------7-----------7----------------------------|  x2
C#|----0-----------0-----------------------0----------------------------------|
G#|---------------------------------------------------------------------------|
C#|---------------------------------------------------------------------------|

D#|---------------------------------------------------------------------------|
A#|----------------------7----------------------------------------------------|
F#|----------7-----------------------7-----------7----------------------------|  x2
C#|----0-----------0-----------------------0----------------------------------|
G#|---------------------------------------------------------------------------|
C#|---------------------------------------------------------------------------|

D#|---------------------------------------------------------------------------|
A#|----------------------10---------------------------------------------------|
F#|----------7-----------------------7-----------7----------------------------|  x2
C#|----0-----------0-----------------------0----------------------------------|
G#|---------------------------------------------------------------------------|
C#|---------------------------------------------------------------------------|

D#|---------------------------------------------------------------------------|
A#|---------------------------------------------------------------------------|
F#|---/9-----7-----------------------11----------9----------------------------|
C#|----------------9\----7-----9----------------------------------------------|
G#|---------------------------------------------------------------------------|
C#|---------------------------------------------------------------------------|

D#|----------------------12---------------------------------------------------|
A#|----------10----------------------10---------------------------------------|
F#|----------------9-----------------------9----------------------------------|
C#|---------------------------------------------------------------------------|
G#|---------------------------------------------------------------------------|
C#|---------------------------------------------------------------------------|





Chorus
0:43 - Rhythm
D#|---------------------------------------------------------------------------|
A#|---------------------------------------------------------------------------|
F#|----------------------------------7----------------------------------------|
C#|----5-----------5-----x--x--x--x--7-----x--x--7----------------------------|
G#|----5-----------5-----x--x--x--x--5-----x--x--7----------------------------|
C#|----5-----------5-----x--x--x--x--------x--x--7----------------------------|


D#|---------------------------------------------------------------------------|
A#|---------------------------------------------------------------------------|
F#|---------------------------------------------------------------------------|
C#|----------7-----7-----x--x--4-----4-----4-----5----------------------------|
G#|----------7-----7-----x--x--4-----4-----4-----5----------------------------|
C#|----------7-----7-----x--x--4-----4-----4-----5----------------------------|

D#|---------------------------------------------------------------------------|
A#|---------------------------------------------------------------------------|
F#|----------------------------------7----------------------------------------|
C#|----5-----------5-----x--x--x--x--7-----x--x--7----------------------------|
G#|----5-----------5-----x--x--x--x--5-----x--x--7----------------------------|
C#|----5-----------5-----x--x--x--x--------x--x--7----------------------------|

D#|---------------------------------------------------------------------------|
A#|---------------------------------------------------------------------------|
F#|---------------------------------------------------------------------------|
C#|----------7-----7-----7-----4-----4-----4-----5----------------------------|
G#|----------7-----7-----7-----5-----5-----5-----5----------------------------|
C#|----------7-----7-----7-----4-----4-----4-----5----------------------------|

D#|---------------------------------------------------------------------------|
A#|---------------------------------------------------------------------------|
F#|----------------------------------7----------------------------------------|
C#|----5-----5-----5-----x--x--x--x--7-----x--x--7----------------------------|
G#|----5-----5-----5-----x--x--x--x--5-----x--x--7----------------------------|
C#|----5-----5-----5-----x--x--x--x--------x--x--7----------------------------|


D#|---------------------------------------------------------------------------|
A#|---------------------------------------------------------------------------|
F#|---------------------------------------------------------------------------|
C#|----------7-----7-----x--x--x--x--4-----4-----5----------------------------|
G#|----------7-----7-----x--x--x--x--4-----4-----5----------------------------|
C#|----------7-----7-----x--x--x--x--4-----4-----5----------------------------|

D#|---------------------------------------------------------------------------|
A#|---------------------------------------------------------------------------|
F#|----------------------------------7----------------------------------------|
C#|----5-----------5\----------------7-----------7----------------------------|
G#|----5-----------5\----------------5-----------7----------------------------|
C#|----5-----------5\----------------------------7----------------------------|


halfway through Chorus
0:52 - Lead
D#|---------------------------------------------------------------------------|
A#|---------------------------------------------------------------------------|
F#|-------------7------------x--x--9/11----9--7-------------------------------|
C#|----7--9--x----------9------------------------9--7-------------------------|
G#|---------------------------------------------------------------------------|
C#|---------------------------------------------------------------------------|

D#|---------------------------------------------------------------------------|
A#|----------------------------------------------7----------------------------|
F#|-------------7------------x--x--6/7-----7--6-------------------------------|
C#|----7--9--x----------9-----------------------------------------------------|
G#|---------------------------------------------------------------------------|
C#|---------------------------------------------------------------------------|

D#|---------------------------------------------------------------------------|
A#|---------------------------------------------------------------------------|
F#|-------------7-------------------------------------------------------------|
C#|----7--9--x----------9-----------------------------------------------------|
G#|---------------------------------------------------------------------------|
C#|---------------------------------------------------------------------------|





Bridge
1:01 - Rhythm
D#|---------------------------------------------------------------------------|
A#|---------------------------------------------------------------------------|
F#|---------------------------------------------------------------------------|
C#|---------------------------------------------------------------------------|
G#|----7--9--9--9--9--9--9--9--9--9--7-----7--7--7--9-------------------------|
C#|----0--0--0--0--0--0--0--0--0--0--0-----0--0--0--0-------------------------|
             *  *  *  *  *  *  *  *        *  *

D#|---------------------------------------------------------------------------|
A#|---------------------------------------------------------------------------|
F#|---------------------------------------------------------------------------|
C#|---------------------------------------------------------------------------|
G#|----9--9--9--9--9--9--9--9--9--9--7-----7--7--7--7-------------------------|
C#|----0--0--0--0--0--0--0--0--0--0--0-----0--0--0--0-------------------------|
       *  *  *  *  *  *  *  *  *  *        *  *  *  *

D#|---------------------------------------------------------------------------|
A#|---------------------------------------------------------------------------|
F#|---------------------------------------------------------------------------|
C#|---------------------------------------------------------------------------|
G#|----7--9--9--9--9--9--9--9--9--9--7-----7--7--7--9-------------------------|
C#|----5--5--5--5--5--5--5--5--5--5--5-----5--5--5--5-------------------------|
             *  *  *  *  *  *  *  *        *  *

D#|---------------------------------------------------------------------------|
A#|---------------------------------------------------------------------------|
F#|---------------------------------------------------------------------------|
C#|---------------------------------------------------------------------------|
G#|----9--9--9--9--9--9--9--9--9--9--7-----7--7--7--7-------------------------|
C#|----5--5--5--5--5--5--5--5--5--5--5-----5--5--5--5-------------------------|
       *  *  *  *  *  *  *  *  *  *        *  *  *  *

1:01 - Lead
D#|---------------------------------------------------------------------------|
A#|----------------10-------10------------------------------------------------|
F#|---------------------------------------------------------------------------|
C#|----------7-----------7----------------------------------------------------|  x4
G#|---------------------------------------------------------------------------|
C#|---------------------------------------------------------------------------|
             *           *




Verse
1:09 - Rhythm
D#|---------------------------------------------------------------------------|
A#|---------------------------------------------------------------------------|
F#|---------------------------------------------------------------------------|
C#|-------------------------9-------------------------------------------------|
G#|----7--9-----9--9-----x--7-----x--7-----x--7-----x-------------------------|
C#|----0--0-----0--0-----x--------x--0-----x--0-----x-------------------------|

D#|---------------------------------------------------------------------------|
A#|---------------------------------------------------------------------------|
F#|---------------------------------------------------------------------------|
C#|-------------------------9-------------------------------------------------|
G#|----7--9-----9--9-----x--7-----x--7-----x--x--x--x-------------------------|
C#|----0--0-----0--0-----x--------x--0-----x--x--x--x-------------------------|

D#|---------------------------------------------------------------------------|
A#|---------------------------------------------------------------------------|
F#|---------------------------------------------------------------------------|
C#|-------------------------9-------------------------------------------------|
G#|----7--9-----9--9--x--x--7--x--x--7-----x--7--x--x-------------------------|
C#|----5--5-----5--5--x--x-----x--x--5-----x--5--x--x-------------------------|

D#|---------------------------------------------------------------------------|
A#|---------------------------------------------------------------------------|
F#|---------------------------------------------------------------------------|
C#|-------------------------9-------------------------------------------------|
G#|----7--9-----9--9--x--x--7--x--x--7-----x--x--x--x-------------------------|
C#|----5--5-----5--5--x--x-----x--x--5-----x--x--x--x-------------------------|

D#|---------------------------------------------------------------------------|
A#|---------------------------------------------------------------------------|
F#|---------------------------------------------------------------------------|
C#|-------------------------9-------------------------------------------------|
G#|----7--9-----9--9-----x--7-----x--7-----x--7-----x-------------------------|
C#|----0--0-----0--0-----x--------x--0-----x--0-----x-------------------------|

D#|---------------------------------------------------------------------------|
A#|---------------------------------------------------------------------------|
F#|---------------------------------------------------------------------------|
C#|-------------------------9-------------------------------------------------|
G#|----7--9-----9--9-----x--7-----x--7-----x--x--x--x-------------------------|
C#|----0--0-----0--0-----x--------x--0-----x--x--x--x-------------------------|

D#|---------------------------------------------------------------------------|
A#|---------------------------------------------------------------------------|
F#|---------------------------------------------------------------------------|
C#|-------------------------9-------------------------------------------------|
G#|----7--9-----9--9--x--x--7--x--x--7-----x--7--x--x-------------------------|
C#|----5--5-----5--5--x--x-----x--x--5-----x--5--x--x-------------------------|

D#|---------------------------------------------------------------------------|
A#|---------------------------------------------------------------------------|
F#|---------------------------------------------------------------------------|
C#|---------------------------------------------------------------------------|
G#|----9--9--9--9-----9--9-----9-----9-----9--9--9--9-------------------------|
C#|----5--5--5--5-----5--5-----5-----5-----5--5--5--5-------------------------|
       *  *  *

1:09 - Lead
D#|---------------------------------------------------------------------------|
A#|----------------10---------------------------------------------------------|
F#|----------------7----------------------------------------------------------|
C#|----------------7----------------------------------------------------------| x3
G#|---------------------------------------------------------------------------|
C#|---------------------------------------------------------------------------|

D#|----------------------------------------10---------------------------------|
A#|----------------10----------------10----------10---------------------------|
F#|----------------7----------------------------------------------------------|
C#|----------------7----------------------------------------------------------| 
G#|---------------------------------------------------------------------------|
C#|---------------------------------------------------------------------------|

D#|---------------------------------------------------------------------------|
A#|----------------10---------------------------------------------------------|
F#|----------------7----------------------------------------------------------|
C#|----------------7----------------------------------------------------------| x3
G#|---------------------------------------------------------------------------|
C#|---------------------------------------------------------------------------|

D#|---------------------------------------------------------------------------|
A#|---------------------------------------------------------------------------|
F#|----------------------------9/11--14----11h9h11h9h11h9h11h9----------------|
C#|----------------------12---------------------------------------------------|
G#|---------------------------------------------------------------------------|
C#|---------------------------------------------------------------------------|





Pre Chorus
1:27 - Rhythm
D#|---------------------------------------------------------------------------|
A#|---------------------------------------------------------------------------|
F#|---------------------------------------------------------------------------|
C#|---------------------------------------------------------------------------|
G#|----7--9--9--9--9--9--9--9--9--9--7-----7--7--7--9-------------------------|
C#|----0--0--0--0--0--0--0--0--0--0--0-----0--0--0--0-------------------------|
             *  *  *  *  *  *  *  *        *  *

D#|---------------------------------------------------------------------------|
A#|---------------------------------------------------------------------------|
F#|---------------------------------------------------------------------------|
C#|---------------------------------------------------------------------------|
G#|-------9--9--9--9--9--9--9--9--9--7-----7--7--7--7-------------------------|
C#|-------0--0--0--0--0--0--0--0--0--0-----0--0--0--0-------------------------|
                *  *  *  *  *  *  *        *  *  *  *

D#|---------------------------------------------------------------------------|
A#|---------------------------------------------------------------------------|
F#|---------------------------------------------------------------------------|
C#|---------------------------------------------------------------------------|
G#|----9-----9--9--9--9--9--9--9--9--7-----7--7--7--9-------------------------|
C#|----5-----5--5--5--5--5--5--5--5--5-----5--5--5--5-------------------------|
             *  *  *  *  *  *  *  *        *  *

D#|---------------------------------------------------------------------------|
A#|---------------------------------------------------------------------------|
F#|---------------------------------------------------------------------------|
C#|---------------------------------------------------------------------------|
G#|-------9--9--9--9--9--9--9--9--9--7-----7--7--7--7-------------------------|
C#|-------5--5--5--5--5--5--5--5--5--5-----5--5--5--5-------------------------|
                *  *  *  *  *  *  *        *  *  *  *

D#|---------------------------------------------------------------------------|
A#|---------------------------------------------------------------------------|
F#|---------------------------------------------------------------------------|
C#|---------------------------------------------------------------------------|
G#|----7--9--9--9--9--9--9--9--9--9--7-----7--7--7--9-------------------------|
C#|----0--0--0--0--0--0--0--0--0--0--0-----0--0--0--0-------------------------|
             *  *  *  *  *  *  *  *        *  *

D#|---------------------------------------------------------------------------|
A#|---------------------------------------------------------------------------|
F#|---------------------------------------------------------------------------|
C#|---------------------------------------------------------------------------|
G#|-------9--9--9--9--9--9--9--9--9--7-----7--7--7--7-------------------------|
C#|-------0--0--0--0--0--0--0--0--0--0-----0--0--0--0-------------------------|
                *  *  *  *  *  *  *        *  *  *  *

D#|---------------------------------------------------------------------------|
A#|---------------------------------------------------------------------------|
F#|---------------------------------------------------------------------------|
C#|----------------------------------7----------------------------------------|
G#|----9--9--9--9--9-----9--9--9--9--5-----------7----------------------------|
C#|----9--9--9--9--9-----9--9--9--9--------------7----------------------------|
       *  *  *  *        *  *  *  *

D#|---------------------------------------------------------------------------|
A#|---------------------------------------------------------------------------|
F#|---------------------------------------------------------------------------|
C#|---------------------------------------------------------------------------|
G#|----------7-----7-----7-----7-----7-----7----------------------------------|
C#|----------7-----7-----7-----7-----7-----7----------------------------------|


1:27 - Lead
D#|---------------------------------------------------------------------------|
A#|----------------------10---------------------------------------------------|
F#|----------7-----------------------7-----------7----------------------------|  x2
C#|----0-----------0-----------------------0----------------------------------|
G#|---------------------------------------------------------------------------|
C#|---------------------------------------------------------------------------|

D#|---------------------------------------------------------------------------|
A#|----------------------7----------------------------------------------------|
F#|----------7-----------------------7-----------7----------------------------|  x2
C#|----0-----------0-----------------------0----------------------------------|
G#|---------------------------------------------------------------------------|
C#|---------------------------------------------------------------------------|

D#|---------------------------------------------------------------------------|
A#|----------------------10---------------------------------------------------|
F#|----------7-----------------------7-----------7----------------------------|  x2
C#|----0-----------0-----------------------0----------------------------------|
G#|---------------------------------------------------------------------------|
C#|---------------------------------------------------------------------------|

D#|---------------------------------------------------------------------------|
A#|---------------------------------------------------------------------------|
F#|---/9-----7-----------------------11----------9----------------------------|
C#|----------------9\----7-----9----------------------------------------------|
G#|---------------------------------------------------------------------------|
C#|---------------------------------------------------------------------------|

D#|----------------------12---------------------------------------------------|
A#|----------10----------------------10---------------------------------------|
F#|----------------9-----------------------9----------------------------------|
C#|---------------------------------------------------------------------------|
G#|---------------------------------------------------------------------------|
C#|---------------------------------------------------------------------------|





Chorus
1:45 - Rhythm
D#|---------------------------------------------------------------------------|
A#|---------------------------------------------------------------------------|
F#|----------------------------------7----------------------------------------|
C#|----5-----------5-----x--x--x--x--7-----x--x--7----------------------------|
G#|----5-----------5-----x--x--x--x--5-----x--x--7----------------------------|
C#|----5-----------5-----x--x--x--x--------x--x--7----------------------------|


D#|---------------------------------------------------------------------------|
A#|---------------------------------------------------------------------------|
F#|---------------------------------------------------------------------------|
C#|----------7-----7-----x--x--4-----4-----4-----5----------------------------|
G#|----------7-----7-----x--x--4-----4-----4-----5----------------------------|
C#|----------7-----7-----x--x--4-----4-----4-----5----------------------------|

D#|---------------------------------------------------------------------------|
A#|---------------------------------------------------------------------------|
F#|----------------------------------7----------------------------------------|
C#|----5-----------5-----x--x--x--x--7-----x--x--7----------------------------|
G#|----5-----------5-----x--x--x--x--5-----x--x--7----------------------------|
C#|----5-----------5-----x--x--x--x--------x--x--7----------------------------|

D#|---------------------------------------------------------------------------|
A#|---------------------------------------------------------------------------|
F#|---------------------------------------------------------------------------|
C#|----------7-----7-----7-----4-----4-----4-----5----------------------------|
G#|----------7-----7-----7-----5-----5-----5-----5----------------------------|
C#|----------7-----7-----7-----4-----4-----4-----5----------------------------|

D#|---------------------------------------------------------------------------|
A#|---------------------------------------------------------------------------|
F#|----------------------------------7----------------------------------------|
C#|----5-----5-----5-----x--x--x--x--7-----x--x--7----------------------------|
G#|----5-----5-----5-----x--x--x--x--5-----x--x--7----------------------------|
C#|----5-----5-----5-----x--x--x--x--------x--x--7----------------------------|


D#|---------------------------------------------------------------------------|
A#|---------------------------------------------------------------------------|
F#|---------------------------------------------------------------------------|
C#|----------7-----7-----x--x--x--x--4-----4-----5----------------------------|
G#|----------7-----7-----x--x--x--x--4-----4-----5----------------------------|
C#|----------7-----7-----x--x--x--x--4-----4-----5----------------------------|

D#|---------------------------------------------------------------------------|
A#|---------------------------------------------------------------------------|
F#|----------------------------------7----------------------------------------|
C#|----5-----------5\----------------7-----------7----------------------------|
G#|----5-----------5\----------------5-----------7----------------------------|
C#|----5-----------5\----------------------------7----------------------------|

D#|---------------------------------------------------------------------------|
A#|---------------------------------------------------------------------------|
F#|---------------------------------------------------------------------------|
C#|-----------7-----7-----7-----7-----7-----7-----7---------------------------|
G#|-----------7-----7-----7-----7-----7-----7-----7---------------------------|
C#|-----------7-----7-----7-----7-----7-----7-----7---------------------------|
              *     *     *     *     *     *     *

halfway through Chorus
1:53 - Lead
D#|---------------------------------------------------------------------------|
A#|---------------------------------------------------------------------------|
F#|-------------7------------x--x--9/11----9--7-------------------------------|
C#|----7--9--x----------9------------------------9--7-------------------------|
G#|---------------------------------------------------------------------------|
C#|---------------------------------------------------------------------------|

D#|---------------------------------------------------------------------------|
A#|----------------------------------------------7----------------------------|
F#|-------------7------------x--x--6/7-----7--6-------------------------------|
C#|----7--9--x----------9-----------------------------------------------------|
G#|---------------------------------------------------------------------------|
C#|---------------------------------------------------------------------------|

D#|---------------------------------------------------------------------------|
A#|---------------------------------------------------------------------------|
F#|-------------7-------------------------------------------------------------|
C#|----7--9--x----------9-----------------------------------------------------|
G#|---------------------------------------------------------------------------|
C#|---------------------------------------------------------------------------|





Bridge
2:02 - Rhythm L
D#|---------------------------------------------------------------------------|
A#|---------------------------------------------------------------------------|
F#|----6-----6-----6-----7-----7-----7-----11----11---------------------------|
C#|----x-----x-----x-----x-----x-----x-----x-----x----------------------------|
G#|----4-----4-----4-----5-----5-----5-----9-----9----------------------------|
C#|---------------------------------------------------------------------------|

D#|---------------------------------------------------------------------------|
A#|---------------------------------------------------------------------------|
F#|----11----11----11----11----11----6-----6-----6----------------------------|
C#|----x-----x-----x-----x-----x-----x-----x-----x----------------------------|
G#|----9-----9-----9-----9-----9-----4-----4-----4----------------------------|
C#|---------------------------------------------------------------------------|

D#|---------------------------------------------------------------------------|
A#|---------------------------------------------------------------------------|
F#|----7-----------7-----7--7-----9--------6----------------------------------|
C#|----x-----------x-----x--x-----x--------x----------------------------------|
G#|----5-----------5-----5--5-----7--------4----------------------------------|
C#|---------------------------------------------------------------------------|

D#|---------------------------------------------------------------------------|
A#|---------------------------------------------------------------------------|
F#|----------6-----6--------6--7-----6-----4-----2----------------------------|
C#|----------x-----x--------x--x-----x-----x-----x----------------------------|
G#|----------4-----4--------4--5-----4-----2-----0----------------------------|
C#|---------------------------------------------------------------------------|

2:02 - Rhythm R
D#|---------------------------------------------------------------------------|
A#|---------------------------------------------------------------------------|
F#|---------------------------------------------------------------------------|
C#|----2-----2-----2-----4-----4-----4-----5-----5----------------------------|
G#|----2-----2-----2-----4-----4-----4-----5-----5----------------------------|
C#|----2-----2-----2-----4-----4-----4-----5-----5----------------------------|

D#|---------------------------------------------------------------------------|
A#|---------------------------------------------------------------------------|
F#|----------------------------------6-----6-----6----------------------------|
C#|----5-----5-----5-----5-----5-----7-----7-----7----------------------------|
G#|----5-----5-----5-----5-----5-----4-----4-----4----------------------------|
C#|----5-----5-----5-----5-----5----------------------------------------------|

D#|---------------------------------------------------------------------------|
A#|---------------------------------------------------------------------------|
F#|----7-----------7-----7--7-----9-------------------------------------------|
C#|----7-----------7-----7--7-----9--------7----------------------------------|
G#|----5-----------5-----5--5-----7--------7----------------------------------|
C#|----------------------------------------7----------------------------------|

D#|---------------------------------------------------------------------------|
A#|---------------------------------------------------------------------------|
F#|---------------------------------------------------------------------------|
C#|----------7-----7--------7--7-----7-----7-----7----------------------------|
G#|----------7-----7--------7--7-----7-----7-----7----------------------------|
C#|----------7-----7--------7--7-----7-----7-----7----------------------------|



2:10 - Rhythm L
D#|---------------------------------------------------------------------------|
A#|---------------------------------------------------------------------------|
F#|----6-----6-----6-----7-----7-----7-----11----11---------------------------|
C#|----x-----x-----x-----x-----x-----x-----x-----x----------------------------|
G#|----4-----4-----4-----5-----5-----5-----9-----9----------------------------|
C#|---------------------------------------------------------------------------|

D#|---------------------------------------------------------------------------|
A#|---------------------------------------------------------------------------|
F#|----11----11----11----11----11----11----11----11---------------------------|
C#|----x-----x-----x-----x-----x-----x-----x-----x----------------------------|
G#|----9-----9-----9-----9-----9-----9-----9-----9----------------------------|
C#|---------------------------------------------------------------------------|

D#|---------------------------------------------------------------------------|
A#|---------------------------------------------------------------------------|
F#|----11----11----11----11----11----12----------9----------------------------|
C#|----x-----x-----x-----x-----x-----x-----------x----------------------------|
G#|----9-----9-----9-----9-----9-----10----------7----------------------------|
C#|---------------------------------------------------------------------------|

D#|---------------------------------------------------------------------------|
A#|---------------------------------------------------------------------------|
F#|----------9-----9--------9--11----9-----7----(7)\--------------------------|
C#|----------x-----x--------x--x-----x-----x-----x----------------------------|
G#|----------7-----7--------7--9-----7-----5----(5)\--------------------------|
C#|---------------------------------------------------------------------------|

2:10 - Rhythm R
D#|---------------------------------------------------------------------------|
A#|---------------------------------------------------------------------------|
F#|---------------------------------------------------------------------------|
C#|----2-----2-----2-----4-----4-----4-----5-----5----------------------------|
G#|----2-----2-----2-----4-----4-----4-----5-----5----------------------------|
C#|----2-----2-----2-----4-----4-----4-----5-----5----------------------------|

D#|---------------------------------------------------------------------------|
A#|---------------------------------------------------------------------------|
F#|----------------------------6-----6-----6-----6----------------------------|
C#|----5-----5-----5-----5-----7-----7-----7-----7----------------------------|
G#|----5-----5-----5-----5-----4-----4-----4-----4----------------------------|
C#|----5-----5-----5-----5----------------------------------------------------|

D#|---------------------------------------------------------------------------|
A#|---------------------------------------------------------------------------|
F#|----7-----------7-----7--7-----7--------6----------------------------------|
C#|----7-----------7-----7--7-----7--------7----------------------------------|
G#|----5-----------5-----5--5-----5--------4----------------------------------|
C#|---------------------------------------------------------------------------|

D#|---------------------------------------------------------------------------|
A#|---------------------------------------------------------------------------|
F#|----------6-----6--------6--6-----7-----7-----7----------------------------|
C#|----------7-----7--------7--7-----7-----7-----7----------------------------|
G#|----------4-----4--------4--4-----5-----5-----5----------------------------|
C#|---------------------------------------------------------------------------|


2:19 - Both Guitars
D#|---------------------------------------------------------------------------|
A#|---------------------------------------------------------------------------|
F#|---------------------------------------------------------------------------|
C#|----2-----------------4-----------------5----------------------------------|
G#|----2-----2-----2-----4-----4-----4-----5----------------------------------|
C#|----2-----2-----2-----4-----4-----4-----5----------------------------------|
             *     *           *     *





Pre Chorus
Rhythm - 2:23
D#|---------------------------------------------------------------------------|
A#|---------------------------------------------------------------------------|
F#|----------------------------------7----------------------------------------|
C#|----5-----------5-----x--x--x--x--7-----x--x--7----------------------------|
G#|----5-----------5-----x--x--x--x--5-----x--x--7----------------------------|
C#|----5-----------5-----x--x--x--x--------x--x--7----------------------------|


D#|---------------------------------------------------------------------------|
A#|---------------------------------------------------------------------------|
F#|----------------------------6--7--6-----6----------------------------------|
C#|----------7-----7-----x--x-----------7-----7-------------------------------|
G#|----------7-----7-----x--x--------------------7--9-------------------------|
C#|----------7-----7-----x--x-------------------------------------------------|

D#|---------------------------------------------------------------------------|
A#|---------------------------------------------------------------------------|
F#|---------------------------------------------------------------------------|
C#|----5-----------5-----------7----------------------------------------------|
G#|----5-----------5-----------5-----------------7----------------------------|
C#|----5-----------5-----------------------------7----------------------------|

D#|---------------------------------------------------------------------------|
A#|---------------------------------------------------------------------------|
F#|---------------------------------------------------------------------------|
C#|---------------------------------------------------------------------------|
G#|----------7-----7----------------------------------------------------------|
C#|----------7-----7----------------------------------------------------------|





Chorus
2:32 - Rhythm
D#|---------------------------------------------------------------------------|
A#|---------------------------------------------------------------------------|
F#|----------------------------------7----------------------------------------|
C#|----5-----------5-----x--x--x--x--7-----x--x--7----------------------------|
G#|----5-----------5-----x--x--x--x--5-----x--x--7----------------------------|
C#|----5-----------5-----x--x--x--x--------x--x--7----------------------------|


D#|---------------------------------------------------------------------------|
A#|---------------------------------------------------------------------------|
F#|---------------------------------------------------------------------------|
C#|----------7-----7-----x--x--4-----4-----4-----5----------------------------|
G#|----------7-----7-----x--x--4-----4-----4-----5----------------------------|
C#|----------7-----7-----x--x--4-----4-----4-----5----------------------------|

D#|---------------------------------------------------------------------------|
A#|---------------------------------------------------------------------------|
F#|----------------------------------7----------------------------------------|
C#|----5-----------5-----x--x--x--x--7-----x--x--7----------------------------|
G#|----5-----------5-----x--x--x--x--5-----x--x--7----------------------------|
C#|----5-----------5-----x--x--x--x--------x--x--7----------------------------|

D#|---------------------------------------------------------------------------|
A#|---------------------------------------------------------------------------|
F#|---------------------------------------------------------------------------|
C#|----------7-----7-----7-----4-----4-----4-----5----------------------------|
G#|----------7-----7-----7-----5-----5-----5-----5----------------------------|
C#|----------7-----7-----7-----4-----4-----4-----5----------------------------|

D#|---------------------------------------------------------------------------|
A#|---------------------------------------------------------------------------|
F#|----------------------------------7----------------------------------------|
C#|----5-----5-----5-----x--x--x--x--7-----x--x--7----------------------------|
G#|----5-----5-----5-----x--x--x--x--5-----x--x--7----------------------------|
C#|----5-----5-----5-----x--x--x--x--------x--x--7----------------------------|


D#|---------------------------------------------------------------------------|
A#|---------------------------------------------------------------------------|
F#|---------------------------------------------------------------------------|
C#|----------7-----7-----7-----x--x--4-----4-----5----------------------------|
G#|----------7-----7-----7-----x--x--4-----4-----5----------------------------|
C#|----------7-----7-----7-----x--x--4-----4-----5----------------------------|

D#|---------------------------------------------------------------------------|
A#|---------------------------------------------------------------------------|
F#|----------------------------------7----------------------------------------|
C#|----5-----------5-----5-----5-----7-----x--x--7----------------------------|
G#|----5-----------5-----5-----5-----5-----x--x--7----------------------------|
C#|----5-----------5-----5-----5-----------x--x--7----------------------------|


D#|---------------------------------------------------------------------------|
A#|---------------------------------------------------------------------------|
F#|---------------------------------------------------------------------------|
C#|----------7-----7-----x--x-------------------------------------------------|
G#|----------7-----7-----x--x-------------------------------------------------|
C#|----------7-----7-----x--x-------------------------------------------------|

halfway through Chorus
2:41 - Lead
D#|---------------------------------------------------------------------------|
A#|---------------------------------------------------------------------------|
F#|-------------7------------x--x--9/11----9--7-------------------------------|
C#|----7--9--x----------9------------------------9--7-------------------------|
G#|---------------------------------------------------------------------------|
C#|---------------------------------------------------------------------------|

D#|---------------------------------------------------------------------------|
A#|----------------------------------------------7----------------------------|
F#|-------------7------------x--x--6/7-----7--6-------------------------------|
C#|----7--9--x----------9-----------------------------------------------------|
G#|---------------------------------------------------------------------------|
C#|---------------------------------------------------------------------------|

D#|---------------------------------------------------------------------------|
A#|---------------------------------------------------------------------------|
F#|-------------7------------x--x--9/11----9--7-------------------------------|
C#|----7--9--x----------9------------------------9--7-------------------------|
G#|---------------------------------------------------------------------------|
C#|---------------------------------------------------------------------------|

D#|---------------------------------------------------------------------------|
A#|---------------------------------------------------------------------------|
F#|-------------7-------------------------------------------------------------|
C#|----7--9--x----------9----\------------------------------------------------|
G#|--------------------------\------------------------------------------------|
C#|--------------------------\------------------------------------------------|
                             Pick slide




Solo
2:50 - Rhythm
D#|---------------------------------------------------------------------------|
A#|---------------------------------------------------------------------------|
F#|-------------------------------7-----7-------------------------------------|
C#|----5-----5-----5-----5--x--x--7-----7-----7-------------------------------|
G#|----5-----5-----5-----5--x--x--5-----5-----7-------------------------------|
C#|----5-----5-----5-----5--x--x--------------7-------------------------------|

D#|---------------------------------------------------------------------------|
A#|---------------------------------------------------------------------------|
F#|---------------------------------------------------------------------------|
C#|----7-----7-----7-----7-----4-----4-----4-----5----------------------------|
G#|----7-----7-----7-----7-----4-----4-----4-----5----------------------------|
C#|----7-----7-----7-----7-----4-----4-----4-----5----------------------------|

D#|---------------------------------------------------------------------------|
A#|---------------------------------------------------------------------------|
F#|-------------------------------7-----7-------------------------------------|
C#|----5-----5-----5-----5--x--x--7-----7-----7-------------------------------|
G#|----5-----5-----5-----5--x--x--5-----5-----7-------------------------------|
C#|----5-----5-----5-----5--x--x--------------7-------------------------------|

D#|---------------------------------------------------------------------------|
A#|---------------------------------------------------------------------------|
F#|---------------------------------------------------------------------------|
C#|----7-----7-----7-----7-----4-----4-----x--x--x--x-------------------------|
G#|----7-----7-----7-----7-----4-----4-----x--x--x--x-------------------------|
C#|----7-----7-----7-----7-----4-----4-----x--x--x--x-------------------------|


2:50 - Lead L
D#|---------------------------------------------------------------------------|
A#|-------------7------------x--x--8/10----8--7-------------------------------|
F#|----7--9--x----------9------------------------9--7-------------------------|
C#|---------------------------------------------------------------------------|
G#|---------------------------------------------------------------------------|
C#|---------------------------------------------------------------------------|

D#|---------------------------------------------------------------------------|
A#|-------------7------------x--x--6/7-----7--8--7----------------------------|
F#|----7--9--x----------9-----------------------------------------------------|
C#|---------------------------------------------------------------------------|
G#|---------------------------------------------------------------------------|
C#|---------------------------------------------------------------------------|

D#|---------------------------------------------------------------------------|
A#|-------------7-------------x--x--8/10----8--7------------------------------|
F#|----7--9--x----------9------------------------9--7-------------------------|
C#|---------------------------------------------------------------------------|
G#|---------------------------------------------------------------------------|
C#|---------------------------------------------------------------------------|

D#|---------------------------------------------------------------------------|
A#|-------------7---------------------7---------------------------------------|
F#|----7--9--x----------x--x--7--9--x------------x--x-------------------------|
C#|---------------------------------------------------------------------------|
G#|---------------------------------------------------------------------------|
C#|---------------------------------------------------------------------------|


2:50 - Lead R
D#|---------------------------------------------------------------------------|
A#|---------------------------------------------------------------------------|
F#|-------------7------------x--x--9/11----9--7-------------------------------|
C#|----7--9--x----------9------------------------9--7-------------------------|
G#|---------------------------------------------------------------------------|
C#|---------------------------------------------------------------------------|

D#|---------------------------------------------------------------------------|
A#|----------------------------------------------7----------------------------|
F#|-------------7------------x--x--6/7-----7--6-------------------------------|
C#|----7--9--x----------9-----------------------------------------------------|
G#|---------------------------------------------------------------------------|
C#|---------------------------------------------------------------------------|

D#|---------------------------------------------------------------------------|
A#|---------------------------------------------------------------------------|
F#|-------------7------------x--x--9/11----9--7-------------------------------|
C#|----7--9--x----------9------------------------9--7-------------------------|
G#|---------------------------------------------------------------------------|
C#|---------------------------------------------------------------------------|

D#|---------------------------------------------------------------------------|
A#|---------------------------------------------------------------------------|
F#|-------------7-------x--x----------7----------x--x-------------------------|
C#|----7--9--x---------------7--9--x------------------------------------------|
G#|---------------------------------------------------------------------------|
C#|---------------------------------------------------------------------------|






Outro
2:58 - Rhythm
D#|---------------------------------------------------------------------------|
A#|---------------------------------------------------------------------------|
F#|----------------------------------7----------------------------------------|
C#|----5-----5-----5-----5-----x--x--7-----x--x--7----------------------------|
G#|----5-----5-----5-----5-----x--x--5-----x--x--7----------------------------|
C#|----5-----5-----5-----5-----x--x--------x--x--7----------------------------|

D#|---------------------------------------------------------------------------|
A#|---------------------------------------------------------------------------|
F#|---------------------------------------------------------------------------|
C#|-------7--7-----7-----7--7--7--4--4-----4-----5----------------------------|
G#|-------7--7-----7-----7--7--7--4--4-----4-----5----------------------------|
C#|-------7--7-----7-----7--7--7--4--4-----4-----5----------------------------|

D#|---------------------------------------------------------------------------|
A#|---------------------------------------------------------------------------|
F#|----------------------------------7----------------------------------------|
C#|----5-----------5\----------------7-----------7----------------------------|
G#|----5-----------5\----------------5-----------7----------------------------|
C#|----5-----------5\----------------------------7----------------------------|


2:58 - Lead
D#|---------------------------------------------------------------------------|
A#|---------------------------------------------------------------------------|
F#|----11----11----11----11----11----7-----7-----14---------------------------|
C#|----x-----x-----x-----x-----x-----x-----x-----x----------------------------|
G#|----9-----9-----9-----9-----9-----5-----5-----12---------------------------|
C#|---------------------------------------------------------------------------|

D#|---------------------------------------------------------------------------|
A#|---------------------------------------------------------------------------|
F#|----------14----14----14----9--9--9-----9-----11---------------------------|
C#|----------x-----x-----x-----x--x--x-----x-----x----------------------------|
G#|----------12----12----12----7--7--7-----7-----9----------------------------|
C#|---------------------------------------------------------------------------|

D#|---------------------------------------------------------------------------|
A#|---------------------------------------------------------------------------|
F#|----12----------12----------------11----------9----------------------------|
C#|----x-----------x-----------------x-----------x----------------------------|
G#|----10----------10----------------9-----------7----------------------------|
C#|---------------------------------------------------------------------------|




************************************

| *   palm mute
| x   Dead note
| g   Grace note
| (n) Ghost note
| h   Hammer-on
| p   Pull-off
| r   Release
| >   Accented note
| t   Tapping
| b   Bend
| br  Bend release
| pb  Pre-bend
| pbr Pre-bend release
| /   Slide up
| \   Slide down
| ~   Vibrato
| s   Slap
| P   Pop
| PM  Palm mute
| TR  Trill
| N   Tremolo

************************************

            
            
Suggest correction
Creating personal tab
Creating personal tab
You can edit any tab online and save it as your Personal.

You can edit, replace or remove any tab part or add personal notes – all changes will be seen only by you.

Personal tabs can be accessed anytime from any device, even offline.
Learn more »
Give kudos to tab author, rate the tab!
1 2 3 4 5
comments
print report bad tab
guest
You may want to rate the tab now too:
select rating
Wanna post a correction for this tab? Suggest correction