Oops, an error
Loading. Please wait.

Shape Up Bass Tab

version 1
version 1

Whole song

Interactive

76 views 6 this week
no commentswrite comment
1 2 3 4 5
3 more votes to show rating
add to favorites
launch autoscroll
font size
0
reset
guitar tuner
Autoscroll
slow
fast
+/-
esc
set tempo
stop
Help us to improve Ultimate-Guitar.com Take our survey!
×
Author
Tuning
C# G# C# F# A# D#
Another bass tab based on the second guitar, think it's down to the point.



Intro (0:06)
F#|---------------------------------------------------------------------------|
C#|---------------------------------------------------------------------------|
G#|---------------------------------------------------------------------------|
C#|----7-----7-----x--7-----7--4-----4-----x--4-----4-------------------------|

F#|---------------------------------------------------------------------------|
C#|---------------------------------------------------------------------------|
G#|---------------------------------------------------------------------------|
C#|----2-----2-----x--2-----2--2-----2-----2--2--2----------------------------|
                                           *  *
F#|---------------------------------------------------------------------------|
C#|---------------------------------------------------------------------------|
G#|---------------------------------------------------------------------------|
C#|----7-----7-----x--7-----7--4-----4-----x--4-----4-------------------------|

F#|---------------------------------------------------------------------------|
C#|---------------------------------------------------------------------------|
G#|---------------------------------------------------------------------------|
C#|----2-----2-----x--2-----2--2-----2-----2--2--2--2-------------------------|

F#|---------------------------------------------------------------------------|
C#|---------------------------------------------------------------------------|
G#|---------------------------------------------------------------------------|
C#|----7-----7\----------------4-----4\---------------------------------------|


Verse (0:22)
F#|---------------------------------------------------------------------------|
C#|---------------------------------------------------------------------------|
G#|----7-----7--7--7--7--7--7--7--7--7--7--7--7--7--7-------------------------|
C#|---------------------------------------------------------------------------|

F#|---------------------------------------------------------------------------|
C#|---------------------------------------------------------------------------|
G#|----4--4--4--4--4--4--4--2-----2--2--2--2--2--2--2-------------------------|
C#|---------------------------------------------------------------------------|

F#|---------------------------------------------------------------------------|
C#|---------------------------------------------------------------------------|
G#|----7--7--7--7--7--7--7--7--7--7--7--7--7--7--7--7-------------------------|
C#|---------------------------------------------------------------------------|

F#|---------------------------------------------------------------------------|
C#|---------------------------------------------------------------------------|
G#|----4--4--4--4--4--4--4--2-----2--2--2--2-----2----------------------------|
C#|---------------------------------------------------------------------------|

F#|---------------------------------------------------------------------------|
C#|---------------------------------------------------------------------------|
G#|---------------------------------------------------------------------------|
C#|----2--2-----2--2-----2--2-----2--2-----2-----2----------------------------|

F#|---------------------------------------------------------------------------|
C#|---------------------------------------------------------------------------|
G#|----4--4--4--4--4--4--4--2-----2--2--2--2--2--2--2-------------------------|
C#|---------------------------------------------------------------------------|

F#|---------------------------------------------------------------------------|
C#|---------------------------------------------------------------------------|
G#|---------------------------------------------------------------------------|
C#|----2--2-----2--2-----2--2-----2--2-----2-----2----------------------------|

F#|---------------------------------------------------------------------------|
C#|---------------------------------------------------------------------------|
G#|----4--4--4--7--7--7--2--------2--2--2--2--4-------------------------------|
C#|---------------------------------------------------------------------------|


Chorus (0:42)
F#|---------------------------------------------------------------------------|
C#|---------------------------------------------------------------------------|
G#|---------------------------------------------------------------------------|
C#|----7-----7-----x--7-----7--4-----4-----x--4-----4-------------------------|

F#|---------------------------------------------------------------------------|
C#|---------------------------------------------------------------------------|
G#|---------------------------------------------------------------------------|
C#|----2-----2-----x--2-----2--2-----2-----2--2--2----------------------------|
                                           *  *
F#|---------------------------------------------------------------------------|
C#|---------------------------------------------------------------------------|
G#|---------------------------------------------------------------------------|
C#|----7-----7-----x--7-----7--4-----4-----x--4-----4-------------------------|

F#|---------------------------------------------------------------------------|
C#|---------------------------------------------------------------------------|
G#|---------------------------------------------------------------------------|
C#|----2-----2-----x--2-----2--2-----2-----2--2--2--2-------------------------|

F#|---------------------------------------------------------------------------|
C#|---------------------------------------------------------------------------|
G#|---------------------------------------------------------------------------|
C#|----7-----7-----x--7-----7--4-----4-----x--4-----4-------------------------|

F#|---------------------------------------------------------------------------|
C#|---------------------------------------------------------------------------|
G#|----4-----4-----x--4-----4--2-----2-----x--2-----2-------------------------|
C#|---------------------------------------------------------------------------|

F#|---------------------------------------------------------------------------|
C#|---------------------------------------------------------------------------|
G#|---------------------------------------------------------------------------|
C#|----7-----7\----------------4-----4\---------------------------------------|


Verse (Enter at 1:13)
F#|---------------------------------------------------------------------------|
C#|---------------------------------------------------------------------------|
G#|---------------------------------------------------------------------------|
C#|----2--2-----2--2-----2--2-----2--2-----2-----2----------------------------|

F#|---------------------------------------------------------------------------|
C#|---------------------------------------------------------------------------|
G#|----4--4--4--4--4--4--4--2-----2--2--2--2--2--2--2-------------------------|
C#|---------------------------------------------------------------------------|

F#|---------------------------------------------------------------------------|
C#|---------------------------------------------------------------------------|
G#|---------------------------------------------------------------------------|
C#|----2--2-----2--2-----2--2-----2--2-----2---0/-----------------------------|

F#|---------------------------------------------------------------------------|
C#|---------------------------------------------------------------------------|
G#|----4--4--4--4--4--4--2--------2--2--2--2--2--2--2-------------------------|
C#|---------------------------------------------------------------------------|


Pre Chorus (1:24)
F#|---------------------------------------------------------------------------|
C#|---------------------------------------------------------------------------|
G#|---------------------------------------------------------------------------|
C#|----7~----------------------9~---------------------------------------------|

F#|---------------------------------------------------------------------------|
C#|---------------------------------------------------------------------------|
G#|----4--------7--------2--------2--2--2--2--4-------------------------------|
C#|---------------------------------------------------------------------------|


Chorus (1:29)
F#|---------------------------------------------------------------------------|
C#|---------------------------------------------------------------------------|
G#|---------------------------------------------------------------------------|
C#|----7-----7-----x--7-----7--4-----4-----x--4-----4-------------------------|

F#|---------------------------------------------------------------------------|
C#|---------------------------------------------------------------------------|
G#|---------------------------------------------------------------------------|
C#|----2-----2-----x--2-----2--2-----2-----2--2--2----------------------------|
                                           *  *
F#|---------------------------------------------------------------------------|
C#|---------------------------------------------------------------------------|
G#|---------------------------------------------------------------------------|
C#|----7-----7-----x--7-----7--4-----4-----x--4-----4-------------------------|

F#|---------------------------------------------------------------------------|
C#|---------------------------------------------------------------------------|
G#|---------------------------------------------------------------------------|
C#|----2-----2-----x--2-----2--2-----2-----2--2--2--2-------------------------|

F#|---------------------------------------------------------------------------|
C#|---------------------------------------------------------------------------|
G#|---------------------------------------------------------------------------|
C#|----7-----7-----x--7-----7--4-----4-----x--4-----4-------------------------|

F#|---------------------------------------------------------------------------|
C#|---------------------------------------------------------------------------|
G#|----4-----4-----x--4-----4--2-----2-----x--2-----2-------------------------|
C#|---------------------------------------------------------------------------|

F#|---------------------------------------------------------------------------|
C#|---------------------------------------------------------------------------|
G#|---------------------------------------------------------------------------|
C#|----7-----7\----------------4-----4\---------------------------------------|


Bridge (1:47)
F#|----------------------------------------------------------------------------|
C#|----------------------------------------------------------------------------|
G#|-----guitar-----------------------------------------------------------------|
C#|---------------------------------7--7-----7--7--7-----7--7--7--7--7--7\-----|

F#|----------------------------------------------------------------------------|
C#|----------------------------------------------------------------------------|
G#|-----guitar-----------------------------------------------------------------|
C#|---------------------------------7--7-----7--7--7-----7--7--7--7--7--7--2---|


(1:57)
F#|---------------------------------------------------------------------------|
C#|---------------------------------------------------------------------------|
G#|---------------------------------------------------------------------------|
C#|-------2--2--2--2--2--2--2--2--2--2--2--2--2--2--7-------------------------|

F#|---------------------------------------------------------------------------|
C#|---------------------------------------------------------------------------|
G#|---------------------------------------------------------------------------|
C#|-------7--7--7-----7--7--7-----7--7--7-----7--7--2-------------------------|

F#|---------------------------------------------------------------------------|
C#|---------------------------------------------------------------------------|
G#|---------------------------------------------------------------------------|
C#|-------2--2--2--2--2--2--2--2--2--2--2--2--2--2--7-------------------------|

F#|---------------------------------------------------------------------------|
C#|---------------------------------------------------------------------------|
G#|---------------------------------------------------------------------------|
C#|-------7--7--7-----7--7--7-----7--7--7-----7--7--7-------------------------|


F#|---------------------------------------------------------------------------|
C#|---------------------------------------------------------------------------|
G#|---------------------------------------------------------------------------|
C#|----9--9--9--9--9--9--9--9--9--9--9--9--9--9--9--9-------------------------|

F#|---------------------------------------------------------------------------|
C#|---------------------------------------------------------------------------|
G#|----4--------7--------2--------2--2--2-------------------------------------|
C#|----------------------------------------6--6-------------------------------|


Pre Chorus (2:13)
Rest

Chorus (2:18)
F#|---------------------------------------------------------------------------|
C#|---------------------------------------------------------------------------|
G#|---------------------------------------------------------------------------|
C#|----7-----7-----x--7-----7--4-----4-----x--4-----4-------------------------|

F#|---------------------------------------------------------------------------|
C#|---------------------------------------------------------------------------|
G#|---------------------------------------------------------------------------|
C#|----2-----2-----x--2-----2--2-----2-----2--2--2----------------------------|
                                           *  *
F#|---------------------------------------------------------------------------|
C#|---------------------------------------------------------------------------|
G#|---------------------------------------------------------------------------|
C#|----7-----7-----x--7-----7--4-----4-----x--4-----4-------------------------|

F#|---------------------------------------------------------------------------|
C#|---------------------------------------------------------------------------|
G#|---------------------------------------------------------------------------|
C#|----2-----2-----x--2-----2--2-----2-----2--2--2--2-------------------------|

F#|---------------------------------------------------------------------------|
C#|---------------------------------------------------------------------------|
G#|---------------------------------------------------------------------------|
C#|----7-----7-----x--7-----7--4-----4-----x--4-----4-------------------------|

F#|---------------------------------------------------------------------------|
C#|---------------------------------------------------------------------------|
G#|----4-----4-----x--4-----4--2-----2-----x--2-----2-------------------------|
C#|---------------------------------------------------------------------------|

F#|---------------------------------------------------------------------------|
C#|---------------------------------------------------------------------------|
G#|---------------------------------------------------------------------------|
C#|----7-----7\----------------4-----4\---------------------------------------|

F#|---------------------------------------------------------------------------|
C#|---------------------------------------------------------------------------|
G#|---------------------------------------------------------------------------|
C#|----2~---------------------------------------------------------------------|




*****************************
-Tablature Legend-


 ~   hold / vibrato
 *   palm mute
 /   slide up
 \   slide down

*****************************
Suggest correction
Give kudos to tab author, rate the tab!
1 2 3 4 5
comments
print report bad tab
guest
You may want to rate the tab now too:
select rating
Wanna post a correction for this tab? Suggest correction