Oops, an error
Loading. Please wait.

Simple Existence tab

2,566 views 24 this week
2 commentsread comments
1 2 3 4 5
x 3
add to favorites
×
Save as Personal and add changes to this tab that will be seen only by you. Learn more ›
×
You can save this tab as Personal to edit and correct it or add notes. All changes will be seen only by you. Learn more »
launch autoscroll
font size
0
reset
how to read this tab
guitar tuner
edit
Autoscroll
slow
fast
+/-
esc
set tempo
stop
This song is Half Step Down. Not DADGAD or some other weird tuning. Learned it by ear, the only thing you'll
have to figure out for yourself is the strumming pattern because I don't feel like typing it out! :P But it's
pretty easy! Hope you enjoy!

*Chords are relative to tuning*

[Song Chords]
      A          E          B         F#

D#|---0----------0----------0---------x-------------------------------------------|
A#|---2----------0----------0---------x-------------------------------------------|
F#|---2----------1----------4---------x-------------------------------------------|
C#|---0----------2----------4---------4-------------------------------------------|
G#|---0----------2----------2---------4-------------------------------------------|
D#|---x----------0----------x---------2-------------------------------------------|

[Intro lick] *Repeat during Chorus'*

D#|--7-00------7-00-----------------------------------------------------------|
A#|-------7-00------7-00--7/9-9-----------------------------------------------|
F#|---------------------------------------------------------------------------|    x2
C#|---------------------------------------------------------------------------|
G#|---------------------------------------------------------------------------|
D#|---------------------------------------------------------------------------|


[Intro Chords]

      A          E          B

D#|---0----------0----------0----------------------------------------------------|
A#|---2----------0----------0----------------------------------------------------|
F#|---2----------1----------4----------------------------------------------------|   x2
C#|---0----------2----------4----------------------------------------------------|
G#|---0----------2----------2----------------------------------------------------|
D#|---x----------0----------x----------------------------------------------------|





[Verse]
          A
I'm in a wasteland, but nevertheless
       E               B
I can try to see this clearly
          A
And I can say that

The day that we met
       E               B
I just had to have you near me


[Pre-Chorus]
A
 I fell asleep in a city that doesn't
E                              B
 Thought I was special but you know I wasn't
A                          E           B
 It's just hard to believe that I won't be
A                 E  B A                                 E  B
 Held responsible,      for the things that you now know


[Chorus]
               A  
I'm coming for you
              E              B                A      E
I'm coming to make sure everything I heard is true
                         B
What's it like to be the one who waited
A              E                B             F#
Long enough to see the day that I could feel again
               A
I'm coming for you
               E               B
I'm coming for you and your simple existence

[Verse 2]
           A
Let's re-arrange this
                               E                B
When everything falls, I can't make out all the signals
         A
But it's strange that
                       E          B
The distance is how we keep it so original

[Bridge]

D#|---------------------------------------------------------------------------|
A#|---------------------------------------------------------------------------|
F#|-------1------------------1------------------1-----------------1-----------|  
C#|----2-----2---2-------2-------2----2------2------2---2------2------2---2---|
G#|---------------------------------------------------------------------------|
D#|--0---0--0---0------0---0---0---0------2---2--2---2------2---2--2----2-----|

D#|---------------------------------------------------------------------------|
A#|--------0------------------0-----------------------------------------------|
F#|---------------------------------------------------------------------------|  x6
C#|----2-------2---2------2-------2---2--------------------------------------|
G#|--0---0---0---0------0---0---0----0----------------------------------------|
D#|---------------------------------------------------------------------------|

E        F#                A                E
 Hearing all the words you kept inside your head
         F#                A                E
When the struggle came to construct these lies instead
               F#               A        E
No telling you where this will go
       F#            A
But as long as you know

[Outro]
A                  E  B  A                                E  B
 You're responsible,     for the things that you now know
               A
I'm coming for you (oh, oh, oh, oh)
              E              B                A
I'm coming to make sure everything I heard is true (you know it's true)
E                         B
 What's it like to be the one who waited
A              E               B              F#
Long enough to see the day that I could feel again (I could feel again)
               A
I'm coming for you
               E               B          A 
I'm coming for you and your simple existence



************************************

| x   Dead note
| g   Grace note
| (n) Ghost note
| h   Hammer-on
| p   Pull-off
| r   Release
| >   Accented note
| t   Tapping
| b   Bend
| br  Bend release
| pb  Pre-bend
| pbr Pre-bend release
| /   Slide up
| \   Slide down
| ~   Vibrato
| s   Slap
| P   Pop
| PM  Palm mute
| TR  Trill
| N   Tremolo

************************************

            
            
Suggest correction
Creating personal tab
Creating personal tab
You can edit any tab online and save it as your Personal.

You can edit, replace or remove any tab part or add personal notes – all changes will be seen only by you.

Personal tabs can be accessed anytime from any device, even offline.
Learn more »
Give kudos to tab author, rate the tab!
1 2 3 4 5
comments
print report bad tab
2 comments total.
-1 reply
felipeantoniomz 10 Apr 13, 2017 02:56 PM

wtf is this shit

0 reply
charteddyz 115 May 13, 2017 12:09 PM

A is actually 002200 :)

guest
You may want to rate the tab now too:
select rating
Wanna post a correction for this tab? Suggest correction