Oops, an error
Loading. Please wait.

Stick Around Tab

version 1
version 1

Whole song

17,810 views 30 this week
no commentswrite comment
1 2 3 4 5
x 5
add to favorites
launch autoscroll
font size
0
reset
how to read this tab
guitar tuner
Autoscroll
slow
fast
+/-
esc
set tempo
stop
Help us to improve Ultimate-Guitar.com Take our survey!
×
Author
http://www.myspace.com/statechampsny
Intro:
e 0-0-x--x-0-0-x-0-x-0-0-x--x-0-0-x-0-0-|
b 2-2-x--x-2-2-x-2-x-2-2-x--x-2-2-x-2-2-|
g 2-2-x--x-2-2-x-2-x-2-2-x--x-2-2-x-2-2-|
d 2-2-x--x-2-2-x-4-x-0-0-x--x-0-0-x-4-4-|
a 0-0-x--x-0-0-x-0-x-0-0-x--x-0-0-x-0-0-|
d ----x--x-----x---x-0-0-x--x-0-0-x-0-0-|

Bridge:
e 0-0-x--x-0-0-x-0-0-x-----------------|
b 0-0-x--x-0-0-x-0-0-x-----------------|
g 9-9-x--x-9-9-x-9-9-x-7-7-7-7-7-7-7-9-|
d 9-9-x--x-9-9-x-9-9-x-7-7-7-7-7-7-7-9-|
a 7-7-x--x-7-7-x-7-7-x-5-5-5-5-5-5-5-7-|
d -------------------------------------|

Chorus:
e 0-00-000-000-000-000--------------------------------------0-00-0----|
b 2-22-222-222-222-222--------------------------------------0-00-0----|
g 2-22-222-222-222-222-7-77-777-777-777-777--11-1111-11h14--9-99-9h14-|
d 2-22-222-222-222-222-7-77-777-777-777-777--11-1111-11h14--9-99-9h14-|
a 0-00-000-000-000-000-5-55-555-555-555-555--9--9-9--9-h12--7-77-7h12-|
d --------------------------------------------------------------------|

e 0-00-000--0000-0------|
b 0-00-000--0000-0------|
g 7-77-777--7777h9------|     X2
d 7-77-777--7777h9------|
a 5-55-555--5555h7------|
d 0-00-000--0000-0------|

Lead:
e 12--5-4h5p4h5--12--5-4h5p4h5--12--5-4h5p4h5--12--5-4h5p4h5--12--5-4h5p4h5-|
b---------------------------------------------------------------------------|
g---------------------------------------------------------------------------|
d---------------------------------------------------------------------------|
a---------------------------------------------------------------------------|
d --------------------------------------------------------------------------|

e 5-5-555-9-9-7h9-7h9-999999----------------------------------------------

Intro
Bridge
Chorus

After Second Chorus:
e ----------------------------0-00-000-000-0000-00-0---00-00--0-00-000-000-00-|
b ----------------------------0-00-000-000-0000-00-0---00-00--0-00-000-000-00-|
g 11-1111-111111-111111-1111119-99-999-999-9997-77-7---77-77--9-99-999-999-99-|
d 11-1111-111111-111111-1111119-99-999-999-9997-77-7---77-55--9-99-999-999-99-|
a 9--9-9--9-9-9--9-9-9--9-9-9-7-77-777-777-7775-55-5---55-55--7-77-777-777-77-|
d-----------------------------------------------------------------------------|

X2

Intro
Chorus
Suggest correction
comments
print report bad tab
guest
You may want to rate the tab now too:
select rating
Wanna post a correction for this tab? Suggest correction