Oops, an error
Loading. Please wait.

Stick Around Tab

version 1
version 1

Whole song

17,960 views 9 this week
no commentswrite comment
1 2 3 4 5
x 5
add to favorites
launch autoscroll
font size
0
reset
how to read this tab
guitar tuner
Autoscroll
slow
fast
+/-
esc
set tempo
stop
Help us to improve Ultimate-Guitar.com Take our survey!
×
Author
Tuning
D A D G B E
http://www.myspace.com/statechampsny

 [Intro]
E|-0-0-x--x-0-0-x-0-x-0-0-x--x-0-0-x-0-0-|
B|-2-2-x--x-2-2-x-2-x-2-2-x--x-2-2-x-2-2-|
G|-2-2-x--x-2-2-x-2-x-2-2-x--x-2-2-x-2-2-|
D|-2-2-x--x-2-2-x-4-x-0-0-x--x-0-0-x-4-4-|
A|-0-0-x--x-0-0-x-0-x-0-0-x--x-0-0-x-0-0-|
D|-----x--x-----x---x-0-0-x--x-0-0-x-0-0-|

 [Bridge]
E|-0-0-x--x-0-0-x-0-0-x-----------------|
B|-0-0-x--x-0-0-x-0-0-x-----------------|
G|-9-9-x--x-9-9-x-9-9-x-7-7-7-7-7-7-7-9-|
D|-9-9-x--x-9-9-x-9-9-x-7-7-7-7-7-7-7-9-|
A|-7-7-x--x-7-7-x-7-7-x-5-5-5-5-5-5-5-7-|
D|--------------------------------------|

 [Chorus]
E|-0-00-000-000-000-000--------------------------------------0-00-0----|
B|-2-22-222-222-222-222--------------------------------------0-00-0----|
G|-2-22-222-222-222-222-7-77-777-777-777-777--11-1111-11h14--9-99-9h14-|
D|-2-22-222-222-222-222-7-77-777-777-777-777--11-1111-11h14--9-99-9h14-|
A|-0-00-000-000-000-000-5-55-555-555-555-555--9--9-9--9-h12--7-77-7h12-|
D|---------------------------------------------------------------------|

E|-0-00-000--0000-0------|
B|-0-00-000--0000-0------|
G|-7-77-777--7777h9------|     X2
D|-7-77-777--7777h9------|
A|-5-55-555--5555h7------|
D|-0-00-000--0000-0------|

 [Lead]
E|--12--5-4h5p4h5--12--5-4h5p4h5--12--5-4h5p4h5--12--5-4h5p4h5--12--5-4h5p4h5-|
B|----------------------------------------------------------------------------|
G|----------------------------------------------------------------------------|
D|----------------------------------------------------------------------------|
A|----------------------------------------------------------------------------|
D|----------------------------------------------------------------------------|

E|-5-5-555-9-9-7h9-7h9-999999-------------------------------------------------|
B|----------------------------------------------------------------------------|
G|----------------------------------------------------------------------------|
D|----------------------------------------------------------------------------|
A|----------------------------------------------------------------------------|
D|----------------------------------------------------------------------------|

[Intro]
[Bridge]
[Chorus]

 After Second Chorus:
E|-------------------------------------------------------0---0-0-0-0-0-0-0-0-0-0-0-00000-000-00000000000-|
B|-------------------------------------------------------0---0-0-0-0-0-0-0-0-0-0-0-00000-000-00000000000-|
G|-1-1-1-1--1-1-1-1--1-1--1-1-1-1--1-1--1-1-1-1--1-1--1-1--9-9-9-9-9-9-9-9-9-9-9-9-77777-777-99999999999-|
D|-1-1-1-1--1-1-1-1--1-1--1-1-1-1--1-1--1-1-1-1--1-1--1-1--9-9-9-9-9-9-9-9-9-9-9-9-77777-755-99999999999-|
A|-9---9--9-----9--9----9-----9--9----9-----9--9----9----7---7-7-7-7-7-7-7-7-7-7-7-55555-555-77777777777-|
D|-------------------------------------------------------------------------------------------------------|
X2

[Intro]
[Chorus]

************************************

| x  Dead note
| h  Hammer-on
| p  Pull-off

************************************
Suggest correction
comments
print report bad tab
guest
You may want to rate the tab now too:
select rating
Wanna post a correction for this tab? Suggest correction