Oops, an error
Loading. Please wait.

Stitches tab

583 views 75 this week
2 commentsread comments
1 2 3 4 5
x 3
add to favorites
×
Save as Personal and add changes to this tab that will be seen only by you. Learn more ›
×
You can save this tab as Personal to edit and correct it or add notes. All changes will be seen only by you. Learn more »
launch autoscroll
font size
0
reset
how to read this tab
guitar tuner
edit
Autoscroll
slow
fast
+/-
esc
set tempo
stop
Album: Punk Goes Pop 7
Original: Shawn Mendes
My cover on YouTube https://www.youtube.com/watch?v=1n_HETKZ1t4

Tuning: Drop C#

[Intro]
(Guitar 1)
D#|--------------------------------------------------------------------|
A#|--------------------------------------------------------------------|
F#|--------------------------------------------------------------------|
C#|--12---12---12-12---11--11---11-11---0---0-----0-0----7---7-----7-7-| (4х)
G#|-9-9-9-9-9-9-9-9--7-7-7-7-7-7-7-7--9-9-9-9-9-9-9-9--5-5-5-5-5-5-5-5-|
C#|-9-9-9-9-9-9-9-9--7-7-7-7-7-7-7-7--0-0-0-0-0-0-0-0--5-5-5-5-5-5-5-5-|
PM  *   *   * *      *   *   * *      *   *   * *      *   *   * *

[Pre-Chorus]
D#|--------------------------------------------------------------------|
A#|--------------------------------------------------------------------|
F#|--------------------------------------------------------------------|
C#|-----5-------5--------7-------7--------9-------9----9-----9-----9-9-|
G#|-5-5-5-5-5-5-5-5--7-7-7-7-7-7-7-7--9-9-9-9-9-9-9-9--9-9-9-9-9-9-9-9-|
C#|-5-5-5-5-5-5-5-5--7-7-7-7-7-7-7-7--9-9-9-9-9-9-9-9--9-9-9-9-9-9-9-9-|
PM  * *   * * *   *  * *   * * *   *  * *   * * *   *    * *   * *  

D#|---------------------------------------------------------------------------|
A#|---------------------------------------------------------------------------|
F#|---------------------------------------------------------------------------|
C#|-----5-------5--------7-------7--------9-------9----------------9-9-9-9--7-|
G#|-5-5-5-5-5-5-5-5--7-7-7-7-7-7-7-7--9-9-9-9-9-9-9-9--9-9-9-9-9-9-9-9-9-9--7-|
C#|-5-5-5-5-5-5-5-5--7-7-7-7-7-7-7-7--9-9-9-9-9-9-9-9--9-9-9-9-9-9-9-9-9-9--7-|
PM  * *   * * *   *  * *   * * *   *  * *   * * *   *  * * * *   

[Chorus]
D#|--------------------------------------------------------------------|
A#|--------------------------------------------------------------------|
F#|--------------------------------------------------------------------|
C#|-9-9-9-9-9-9-9-9--7-7-7-7-7-7-7-7--0-0-0-0-0-0-0-0--5-5-5-5-5-5-5-5-|
G#|-9-9-9-9-9-9-9-9--7-7-7-7-7-7-7-7--0-0-0-0-0-0-0-0--5-5-5-5-5-5-5-5-|
C#|-9-9-9-9-9-9-9-9--7-7-7-7-7-7-7-7--0-0-0-0-0-0-0-0--5-5-5-5-5-5-5-5-|

D#|----------------------------------------------------------------------|
A#|----------------------------------------------------------------------|
F#|----------------------------------------------------------------------|
C#|-9-9-9-9-9-9-9-9--7-7-7-7-7-7-7-7--0-0-0-0-0-0-0-0--5-----5-----5-----|
G#|-9-9-9-9-9-9-9-9--7-7-7-7-7-7-7-7--0-0-0-0-0-0-0-0--5-5-5-5-5-5-5-5-5-|
C#|-9-9-9-9-9-9-9-9--7-7-7-7-7-7-7-7--0-0-0-0-0-0-0-0--5-5-5-5-5-5-5-5-5-|
PM                                                       * *   * *   * *

D#|--------------------------------------------------------------------|
A#|--------------------------------------------------------------------|
F#|--------------------------------------------------------------------|
C#|-9-9-9-9-9-9-9-9--7-7-7-7-7-7-7-7--0-0-0-0-0-0-0-0--5-5-5-5-5-5-5-5-|
G#|-9-9-9-9-9-9-9-9--7-7-7-7-7-7-7-7--0-0-0-0-0-0-0-0--5-5-5-5-5-5-5-5-|
C#|-9-9-9-9-9-9-9-9--7-7-7-7-7-7-7-7--0-0-0-0-0-0-0-0--5-5-5-5-5-5-5-5-|

D#|--------------------------------------------------------------------|
A#|--------------------------------------------------------------------|
F#|--------------------------------------------------------------------|
C#|-9-9-9-9-9-9-9-9--7-7-7-7-7-7-7-7--0-0-0-0-0-0-0-0--5-5-5-5-5-5-5-5-|
G#|-9-9-9-9-9-9-9-9--7-7-7-7-7-7-7-7--0-0-0-0-0-0-0-0--5-5-5-5-5-5-5-5-|
C#|-9-9-9-9-9-9-9-9--7-7-7-7-7-7-7-7--0-0-0-0-0-0-0-0--5-5-5-5-5-5-5-5-|

[Verse]
D#|--7~~~~--5~~~~-----------------------------------------------------------------|
A#|--7~~~~--5~~~~-----------------------------------------------------------------|
F#|--7~~~~--7~~~~--7~-------------------------------------------------------------|
C#|--9~~~~--7~~~~-----7~-----9-9----9-7-7--////--0-0-0-0-0-0-0-0--5-5-5-5-5-5-5-5-|
G#|----------------------5~--9-9----9-7-7--////--9-9-9-9-9-9-9-9--5-5-5-5-5-5-5-5-|
C#|--------------------------9-9----9-7-7--////--0-0-0-0-0-0-0-0--5-5-5-5-5-5-5-5-|

D#|----------------------------------------------------------------------------|
A#|----------------------------------------------------------------------------|
F#|------------------14-14-14-14-14-14-14-14-----------------------------------|
C#|-9-9-9-9-9-9-9-9--14-14-14-14-14-14-14-14--0-0-0-0-0-0-0-0--5-----5-----5-5-|
G#|-9-9-9-9-9-9-9-9--12-12-12-12-12-12-12-12--9-9-9-9-9-9-9-9--5-5-5-5-5-5-5-5-|
C#|-9-9-9-9-9-9-9-9---------------------------0-0-0-0-0-0-0-0--5-5-5-5-5-5-5-5-|
PM                                                               * *   * *

[Pre-Chorus]
D#|----------------------------------------------------------------|
A#|----------------------------------------------------------------|
F#|----------------------------------------------------------------|
C#|----------------------------------------------------------------|
G#|-5-5--5-5-5-5-5--7-7--7-7-7-7-7--9-9--9-9-9-9-9--9-9--9-9-9-9-9-|
C#|-5-5--5-5-5-5-5--7-7--7-7-7-7-7--9-9--9-9-9-9-9--9-9--9-9-9-9-9-|
PM  * *  * * * * *  * *  * * * * *  * *  * * * * *  * *  * * * * * 

D#|----------------------------------|
A#|----------------------------------|
F#|----------------------------------|
C#|-5~~~~--7~~~~--9-9-9-9-9-9-9-9--7-|
G#|-5~~~~--7~~~~--9-9-9-9-9-9-9-9--7-|
C#|-5~~~~--7~~~~--9-9-9-9-9-9-9-9--7-|

[Chorus]
D#|--------------------------------------------------------------------|
A#|--------------------------------------------------------------------|
F#|--------------------------------------------------------------------|
C#|-9-9-9-9-9-9-9-9--7-7-7-7-7-7-7-7--0-0-0-0-0-0-0-0--5-5-5-5-5-5-5-5-|
G#|-9-9-9-9-9-9-9-9--7-7-7-7-7-7-7-7--0-0-0-0-0-0-0-0--5-5-5-5-5-5-5-5-|
C#|-9-9-9-9-9-9-9-9--7-7-7-7-7-7-7-7--0-0-0-0-0-0-0-0--5-5-5-5-5-5-5-5-|

D#|----------------------------------------------------------------------|
A#|----------------------------------------------------------------------|
F#|----------------------------------------------------------------------|
C#|-9-9-9-9-9-9-9-9--7-7-7-7-7-7-7-7--0-0-0-0-0-0-0-0--5-----5-----5-----|
G#|-9-9-9-9-9-9-9-9--7-7-7-7-7-7-7-7--0-0-0-0-0-0-0-0--5-5-5-5-5-5-5-5-5-|
C#|-9-9-9-9-9-9-9-9--7-7-7-7-7-7-7-7--0-0-0-0-0-0-0-0--5-5-5-5-5-5-5-5-5-|
PM                                                       * *   * *   * *

D#|--------------------------------------------------------------------|
A#|--------------------------------------------------------------------|
F#|--------------------------------------------------------------------|
C#|-9-9-9-9-9-9-9-9--7-7-7-7-7-7-7-7--0-0-0-0-0-0-0-0--5-5-5-5-5-5-5-5-|
G#|-9-9-9-9-9-9-9-9--7-7-7-7-7-7-7-7--0-0-0-0-0-0-0-0--5-5-5-5-5-5-5-5-|
C#|-9-9-9-9-9-9-9-9--7-7-7-7-7-7-7-7--0-0-0-0-0-0-0-0--5-5-5-5-5-5-5-5-|

D#|--------------------------------------------------------------------|
A#|--------------------------------------------------------------------|
F#|--------------------------------------------------------------------|
C#|-9-9-9-9-9-9-9-9--7-7-7-7-7-7-7-7--0-0-0-0-0-0-0-0--5-5-5-5-5-5-5-5-|
G#|-9-9-9-9-9-9-9-9--7-7-7-7-7-7-7-7--0-0-0-0-0-0-0-0--5-5-5-5-5-5-5-5-|
C#|-9-9-9-9-9-9-9-9--7-7-7-7-7-7-7-7--0-0-0-0-0-0-0-0--5-5-5-5-5-5-5-5-|

[Bridge]
(Guitar 1)
D#|--------------------------------------------|
A#|--------------------------------------------|
F#|--------------------------------------------|
C#|------------------------------------5-5-5-5-|
G#|-9-9~~~~--7-7~~~~--0-0~~~~--5-5-5-5-5-5-5-5-|
C#|-9-9~~~~--7-7~~~~--0-0~~~~--5-5-5-5-5-5-5-5-|
PM  * *      * *      * *      * * * *          

(Guitar 2)
D#|-------2~~--------0~~---------------------|
A#|---2-3--------2--------------3~~-------3~-|
F#|-4----------2---2----------6-------4------|
C#|-------------------------4-------5---5----|
G#|-----------------------5------------------|
C#|------------------------------------------|

(Guitar 1)
D#|----------------------------------------------------------|
A#|----------------------------------------------------------|
F#|----------------------------------------------------------|
C#|-9-9-9-9-9---9-7-7-7-7-7----0-0-0-0-0---0-5-5-5-5---------|
G#|-9-9-9-9-9---9-7-7-7-7-7----0-0-0-0-0---0-5-5-5-5-4-4-7-7-|
C#|-9-9-9-9-9---9-7-7-7-7-7----0-0-0-0-0---0-5-5-5-5-4-4-7-7-|
PM                                                   * * * *

D#|-----------------------------------------------|
A#|-----------------------------------------------|
F#|----------------------------7-7-7-7-7-7-7-7----|
C#|-9-9-9-9-9---9-7-7-7-7-7----7-7-7-7-7-7-7-7--5-|
G#|-9-9-9-9-9---9-7-7-7-7-7----5-5-5-5-5-5-5-5--5-|
C#|-9-9-9-9-9---9-7-7-7-7-7---------------------5-|

[Chorus]
D#|--------------------------------------------------------------------|
A#|--------------------------------------------------------------------|
F#|--------------------------------------------------------------------|
C#|-9-9-9-9-9-9-9-9--7-7-7-7-7-7-7-7--0-0-0-0-0-0-0-0--5-5-5-5-5-5-5-5-|
G#|-9-9-9-9-9-9-9-9--7-7-7-7-7-7-7-7--0-0-0-0-0-0-0-0--5-5-5-5-5-5-5-5-|
C#|-9-9-9-9-9-9-9-9--7-7-7-7-7-7-7-7--0-0-0-0-0-0-0-0--5-5-5-5-5-5-5-5-|

D#|----------------------------------------------------------------------|
A#|----------------------------------------------------------------------|
F#|----------------------------------------------------------------------|
C#|-9-9-9-9-9-9-9-9--7-7-7-7-7-7-7-7--0-0-0-0-0-0-0-0--5-----5-----5-----|
G#|-9-9-9-9-9-9-9-9--7-7-7-7-7-7-7-7--0-0-0-0-0-0-0-0--5-5-5-5-5-5-5-5-5-|
C#|-9-9-9-9-9-9-9-9--7-7-7-7-7-7-7-7--0-0-0-0-0-0-0-0--5-5-5-5-5-5-5-5-5-|
PM                                                       * *   * *   * *

D#|-------------------------------------------------------|
A#|-------------------------------------------------------|
F#|-------------------------------------------------------|
C#|-9-9-9-9-9---9-7-7-7-7-7----0-0-0-0-0---0-5-5-5-5-7--8-|
G#|-9-9-9-9-9---9-7-7-7-7-7----0-0-0-0-0---0-5-5-5-5-7--9-|
C#|-9-9-9-9-9---9-7-7-7-7-7----0-0-0-0-0---0-5-5-5-5-7--8-|

D#|-------------------------------------------------------------|
A#|-------------------------------------------------------------|
F#|----------------------------7-7-7-7-7-7-7-7------------------|
C#|-9-9-9-9-9---9-7-7-7-7-7----7-7-7-7-7-7-7-7--5-5-5-5-5-5-5-5-|
G#|-9-9-9-9-9---9-7-7-7-7-7----5-5-5-5-5-5-5-5--5-5-5-5-5-5-5-5-|
C#|-9-9-9-9-9---9-7-7-7-7-7---------------------5-5-5-5-5-5-5-5-|

[Outro]
(Guitar 2)
D#|-------2~~~~-|
A#|---2-3-------|
F#|-4-----------|
C#|-------------|
G#|-------------|
C#|-------------|


************************************

| PM  Palm mute
| ~   Vibrato
| /   Slide up
 

************************************

            
            
Suggest correction
Creating personal tab
Creating personal tab
You can edit any tab online and save it as your Personal.

You can edit, replace or remove any tab part or add personal notes – all changes will be seen only by you.

Personal tabs can be accessed anytime from any device, even offline.
Learn more »
Give kudos to tab author, rate the tab!
1 2 3 4 5
comments
print report bad tab
2 comments total.
0 reply
brixdaniel 10 Aug 26, 2017 07:04 AM

good tab m8, accurate

0 reply
brixdaniel 10 Aug 26, 2017 07:04 AM

accurate rhythm parts

guest
You may want to rate the tab now too:
select rating
Wanna post a correction for this tab? Suggest correction