Oops, an error
Loading. Please wait.

Best I Ever Had Tab

version 1
version 1

Intro

Whole song

6,733 views 1 this week
2 commentsread comments
1 2 3 4 5
3 more votes to show rating
add to favorites
launch autoscroll
font size
0
reset
how to read this tab
guitar tuner
Autoscroll
slow
fast
+/-
esc
set tempo
stop
Help us to improve Ultimate-Guitar.com Take our survey!
×
Author
Difficulty
intermediate
  Ok, this is my first tab. it sounds about rite.
   
    Capo, 1st Fret.
  
 Intro

     Am                F                               
e|------------------------------0-----------------------------------|
B|----------1-0-------------------3---0-----------------------------|
G|-------2-------0-----------2--------------------------------------|
D|-----2---------2--------3-----------------------------------------|
A|---0-----------------3--------------------------------------------|
E|------------------------------------------------------------------|


      "Now I know I messed up bad" "You were the Best I Ever Had
    Am            F              C                       Asus4

e|-------------------------------------------------------0-----------------|
B|--1-------------1--------------1-------------------------3---------------|
G|--2-------------2--------------0---------------------------2-------------|
D|--2-------------3--------------2-----------------------------2-----------|
A|--0-------------3--------------3-----------------------------------------|
E|-------------------------------3-----------------------------------------|

    "I let you down, in the worst way" "It hurts me every single day"
    Am                                 F                  Asus

e|-------------------------------------------0--------------0-------|
B|----------1-0--------------------------------3---0----------3-----|
G|-------2-------0-------------------------2--------------------2---|
D|-----2---------2-----------------------3------------------------2-|
A|---0---------------------------------3----------------------------|
E|------------------------------------------------------------------|

      "I'm dying to let you know" "And now i'm here to say i'm sorry"
     Am        

e|------------------------------------------------------------------|
B|------1-----------------------------------------------------------|
G|----2---2---------------------------------------------------------|
D|--2-----2---------------------------------------------------------|
A|--------0---------------------------------------------------------|
E|------------------------------------------------------------------|


Suggest correction
Give kudos to tab author, rate the tab!
1 2 3 4 5
comments
print report bad tab
2 comments total.
0 reply
blueee 10 Aug 23, 2008 01:18 AM

thank you for this tab,could you finish the whole song tab plssss. tnx again

0 reply
EdmoKai 10 Nov 17, 2008 10:50 PM

plzz finish this

guest
You may want to rate the tab now too:
select rating
Wanna post a correction for this tab? Suggest correction