Oops, an error
Loading. Please wait.

Best I Ever Had Tab

version 1
version 1

Whole song

7,899 views 1 this week
no commentswrite comment
1 2 3 4 5
please rate
add to favorites
launch autoscroll
font size
0
reset
how to read this tab
guitar tuner
Autoscroll
slow
fast
+/-
esc
set tempo
stop
Help us to improve Ultimate-Guitar.com Take our survey!
×
title: best i ever had
artist: state of shock
Tab by: dhon Ayco
jaycee_rocker69@yahoo.com

ei guys this is my first tab, hope you like it enjoy ;))

intro:
you can do the chords (Abm F# C#)

e----------2--------------|
b----------2------6-4-----|
g----6-5---3-----6---5----|
D---8------4----6---------|
A--8-------4---4----------|
E-6--------2--------------|

verse 1


e------------2---------------------------------------|
b------------2------------------4-6-4----------------|
g------------3---------6--------------6-5------------|
D--8---------4---------6-----------------------------|
A--8---------4---------4-----------------------------|
E--6---------2---------------------------------------|

                   timing lang

     you can do the same chords if you want though (Abm F# C#)the Abm F#
e----------2----------------------------------------2-----------------|
b----------2------6-4--------4-6-4------------------2-----------------|
g----6-5---3-----6---5--------------6-5-------------3-----------------|
D---8------4----6----------------------------8------4-----------------|
A--8-------4---4-----------------------------8------4-----------------|
E-6--------2---------------------------------6------2-----------------|
                                           i'm dying to let you know


Chorus:


e----------4-------2-------|
b----------4-------2-------|
g--6-------5-------3-------|
D--6-------6-------4-------|
A--4-------6-------4-------|
E----------4-------2-------|

chords continue in the chorus

e---------2-------------7---|
b---------2-------------7---|
g---------3-------------8---|
D--8------4------8------9---|
A--8------4------8------9---|
E--6------2------6------7---|

verse 2


e---------2---------------------------------2----------|
b---------2---------------------------------2----------|
g---------3------6--------------------------3----------|
D--8------4------6------ 2 times-------8----4----------|
A--8------4------4---------------------8----4----------|
E--6------2----------------------------6----2----------|


e---------2------------7---|
b---------2------------7---|
g---------3------------8---|   timing lang
D--8------4------8-----9---|
A--8------4------8-----9---|
E--6------2------6-----7---|

chorus:

e----------4-------2-------|
b----------4-------2-------|
g--6-------5-------3-------|
D--6-------6-------4-------|2 times
A--4-------6-------4-------|
E----------4-------2-------|

chorus continue

e---------4-------2----|
b---------4-------2----|
g---------5-------3----| 3 times
D--8------6-------4----|
A--8------6-------4----|
E--6------4-------2----|

we fell inlove for a reason.......

e---------2------------7---|
b---------2------------7---|
g---------3------------8---|   timing lang
D--8------4------8-----9---|
A--8------4------8-----9---|
E--6------2------6-----7---|

you and i were living a love song.............


chorus:

e----------4-------2-------|
b----------4-------2-------|
g--6-------5-------3-------|
D--6-------6-------4-------| chords till ends
A--4-------6-------4-------|
E----------4-------2-------|

 that's it rock on ;))
 hi to Graziele Lazarte iluvu po :))
Suggest correction
Give kudos to tab author, rate the tab!
1 2 3 4 5
comments
print report bad tab
guest
You may want to rate the tab now too:
select rating
Please do not post tabs as comments. Select "correction" instead!