Oops, an error
Loading. Please wait.

Hearts That Bleed Tab

2,061 views 1 this week
5 commentsread comments
1 2 3 4 5
worth learning
x 5
add to favorites
launch autoscroll
font size
0
reset
how to read this tab
guitar tuner
Tab Pro tools
  • play this tab
  • loop segment
  • change instrument
  • show fretboard
  • metronome
×
Best way to learn
"Hearts That Bleed"
Autoscroll
slow
fast
+/-
esc
set tempo
stop
Contributor
Tuning
D A D G B E
STATE OF SHOCK -- HEARTS THAT BLEED
DROP D TUNING
SUBMITTED BY ELLIOTT SUTHERLAND
Hey I dont know how to PRO TAB but I tried my best
hope yall like it and rate it soo pEACCE
THE PRECHORUS AND CHORUS IS WHEN U STRUM SO YEAA lol

*********************************************HEARTS THAT BLEED

THE INTRO    REPEAT 6x  [Six Times]

//Verse 1//
Intro...
I could....
Tell Me....
Too Many...
Too Many...
|-----------------------------------------|
|-----------------------------------------|
|-----0--------0--------0--------0--------|
|---7---7----7---7----3---3----5---5------| <--- REPEAT 6x
|-5--------5--------1--------3------------|
|-----------------------------------------|


//PreChorus//
she says  I dont wanna waste my life
hatin every god damn                 day awayy.....
|-------------------------------------------|-------------------------|
|-------------------------------------------|-------------------------|
|-3-3-33-3----5-5-55-5----3-3-33-3----5~----|-------------------------|
|-3-3-33-3----5-5-55-5----3-3-33-3----5~----|-------------------------|
|-1-1-11-1----3-3-33-3----1-1-11-1----3~----|--5-------5------5-------|
|-------------------------------------------|----5-4-----5-4----------|

//CHORUS//
 WHEN I SIT BACK AND OPEN MY EYES  I SEE WERE LIVIN TO SEPERATE LIVES
|-0-0-00-0-0---0-0-00-0-0-----5-5-55-5-5---5-5-55-5-5----|
|-3-3-33-3-3---3-3-33-3-3-----5-5-55-5-5---5-5-55-5-5----|
|-2-2-22-2-2---2-2-22-2-2-----6-6-66-6-6---6-6-66-6-6----|
|-0-0-00-0-0---0-0-00-0-0-----7-7-77-7-7---7-7-77-7-7----|
|-----------------------------7-7-77-7-7---7-7-77-7-7----|
|--------------------------------------------------------|

LIKE A WELL...FROM ALL THE YEARS...
|--0-0-00------0-0-00-------------|
|--3-3-33------3-3-33-------------|
|--4-4-44------0-0-00-------------|
|--4-4-44------0-0-00-------------|
|--2-2-22------2-2-22-------------|
|---------------------------------|

ITS HARD TO SEE THROUGH H.T.B.. ITS HARD TO SEE....
|-0-0-00-0-0---0-0-00-0-0-----5-5-55-5-5---5-5-55-5-5----|
|-3-3-33-3-3---3-3-33-3-3-----5-5-55-5-5---5-5-55-5-5----|
|-2-2-22-2-2---2-2-22-2-2-----6-6-66-6-6---6-6-66-6-6----|
|-0-0-00-0-0---0-0-00-0-0-----7-7-77-7-7---7-7-77-7-7----|
|-----------------------------7-7-77-7-7---7-7-77-7-7----|
|--------------------------------------------------------|

|--0-0-00----------------------------------------|
|--3-3-33----------------------------------------|
|--4-4-44----------------------------------------|
|--4-4-44----------------------------------------|
|--2-2-22----5------5------5------5------555-----|
|--------------5-4----4-4----4-4----4-4--444-----|

//verse 2//
Now she...
But Today...
Too Many...
Too Many...

|-----------------------------------------|
|-----------------------------------------|
|-----0--------0--------0--------0--------|
|---7---7----7---7----3---3----5---5------| <--- REPEAT 4x
|-5--------5--------1--------3------------|
|-----------------------------------------|

//PreChorus//
she says  I dont wanna waste my life
hatin every god damn                 day awayy.....
|-------------------------------------------|-------------------------|
|-------------------------------------------|-------------------------|
|-3-3-33-3----5-5-55-5----3-3-33-3----5~----|-------------------------|
|-3-3-33-3----5-5-55-5----3-3-33-3----5~----|-------------------------|
|-1-1-11-1----3-3-33-3----1-1-11-1----3~----|--5-------5------5-------|
|-------------------------------------------|----5-4-----5-4----------|


//CHORUS//
 WHEN I SIT BACK AND OPEN MY EYES  I SEE WERE LIVIN TO SEPERATE LIVES
|-0-0-00-0-0---0-0-00-0-0-----5-5-55-5-5---5-5-55-5-5----|
|-3-3-33-3-3---3-3-33-3-3-----5-5-55-5-5---5-5-55-5-5----|
|-2-2-22-2-2---2-2-22-2-2-----6-6-66-6-6---6-6-66-6-6----|
|-0-0-00-0-0---0-0-00-0-0-----7-7-77-7-7---7-7-77-7-7----|
|-----------------------------7-7-77-7-7---7-7-77-7-7----|
|--------------------------------------------------------|

LIKE A WELL...FROM ALL THE YEARS...
|--0-0-00------0-0-00-------------|
|--3-3-33------3-3-33-------------|
|--4-4-44------0-0-00-------------|
|--4-4-44------0-0-00-------------|
|--2-2-22------2-2-22-------------|
|---------------------------------|

WHEN I SIT BACK AND OPEN MY EYES  I SEE WERE LIVIN TO SEPERATE LIVES
|-0-0-00-0-0---0-0-00-0-0-----5-5-55-5-5---5-5-55-5-5----|
|-3-3-33-3-3---3-3-33-3-3-----5-5-55-5-5---5-5-55-5-5----|
|-2-2-22-2-2---2-2-22-2-2-----6-6-66-6-6---6-6-66-6-6----|
|-0-0-00-0-0---0-0-00-0-0-----7-7-77-7-7---7-7-77-7-7----|
|-----------------------------7-7-77-7-7---7-7-77-7-7----|
|--------------------------------------------------------|

LIKE WERE TRYING...FROM A ROLLERCOASTER RIDE
|--0-0-00------0-0-00-------------|
|--3-3-33------3-3-33-------------|
|--4-4-44------0-0-00-------------|
|--4-4-44------0-0-00-------------|
|--2-2-22------2-2-22-------------|
|---------------------------------|

ITS HARD TO SEE THROUGH H.T.B.. ITS HARD TO SEE....
|-0-0-00-0-0---0-0-00-0-0-----5-5-55-5-5---5-5-55-5-5----|
|-3-3-33-3-3---3-3-33-3-3-----5-5-55-5-5---5-5-55-5-5----|
|-2-2-22-2-2---2-2-22-2-2-----6-6-66-6-6---6-6-66-6-6----|
|-0-0-00-0-0---0-0-00-0-0-----7-7-77-7-7---7-7-77-7-7----|
|-----------------------------7-7-77-7-7---7-7-77-7-7----|
|--------------------------------------------------------|

|--0-0-00----|
|--3-3-33----|
|--4-4-44----|
|--4-4-44----|
|--2-2-22----|
|------------|

/BRIDGE//

                NOW I DONT LIKE LIVING THIS WAY...
|---------------0-0-00-0-0-----0-0-00-0-0-----0-0-00-0-0--------|
|---------------3-3-33-3-3-----2-2-22-2-2-----3-3-33-3-3--------|
|---------------4-4-44-4-4-----2-2-22-2-2-----0-0-00-0-0--------|
|--4~-5~-7~-----4-4-44-4-4-----2-2-22-2-2-----0-0-00-0-0--------|
|--4~-5~-7~-----2-2-22-2-2-----0-0-00-0-0-----2-2-22-2-2--------|
|--4~-5~-7~-----------------------------------------------------|

                ITS NOT RIGHT SECOND GUESSIN OUR FATE
|---------------0-0-00-0-0-----0-0-00-0-0-----0-0-00-0-0--------|
|---------------3-3-33-3-3-----2-2-22-2-2-----3-3-33-3-3--------|
|---------------4-4-44-4-4-----2-2-22-2-2-----0-0-00-0-0--------|
|--4~-5~-7~-----4-4-44-4-4-----2-2-22-2-2-----0-0-00-0-0--------|
|--4~-5~-7~-----2-2-22-2-2-----0-0-00-0-0-----2-2-22-2-2--------|
|--4~-5~-7~-----------------------------------------------------|

                IF YOU WANT TO SAY ITS A WRECK
|---------------0-0-00-0-0-----0-0-00-0-0-----0-0-00-0-0--------|
|---------------3-3-33-3-3-----2-2-22-2-2-----3-3-33-3-3--------|
|---------------4-4-44-4-4-----2-2-22-2-2-----0-0-00-0-0--------|
|--4~-5~-7~-----4-4-44-4-4-----2-2-22-2-2-----0-0-00-0-0--------|
|--4~-5~-7~-----2-2-22-2-2-----0-0-00-0-0-----2-2-22-2-2--------|
|--4~-5~-7~-----------------------------------------------------|

                ILL UNDERSTAND ITS FOR THE BEST
|---------------0-0-00-0-0-----0-0-00-0-0------|
|---------------3-3-33-3-3-----2-2-22-2-2------|
|---------------4-4-44-4-4-----2-2-22-2-2------|
|--4~-5~-7~-----4-4-44-4-4-----2-2-22-2-2------|
|--4~-5~-7~-----2-2-22-2-2-----0-0-00-0-0------|
|--4~-5~-7~------------------------------------|


 Its hard to
see through
Hearts that bleed     Its hard to seeee
|--0~---------------------------------------------|
|--0~-----------------0~-------------------0~-----|
|--7~-----------------0~-------------------0~-----|
|--7~-----------------7~-------------------5~-----|
|--5~-----------------7~-------------------5~-----|
|---------------------7~-------------------5~-----|

//CHORUS//
 WHEN I SIT BACK AND OPEN MY EYES  I SEE WERE LIVIN TO SEPERATE LIVES
|-0-0-00-0-0---0-0-00-0-0-----5-5-55-5-5---5-5-55-5-5----|
|-3-3-33-3-3---3-3-33-3-3-----5-5-55-5-5---5-5-55-5-5----|
|-2-2-22-2-2---2-2-22-2-2-----6-6-66-6-6---6-6-66-6-6----|
|-0-0-00-0-0---0-0-00-0-0-----7-7-77-7-7---7-7-77-7-7----|
|-----------------------------7-7-77-7-7---7-7-77-7-7----|
|--------------------------------------------------------|

LIKE A WELL...FROM ALL THE YEARS...
|--0-0-00------0-0-00-------------|
|--3-3-33------3-3-33-------------|
|--4-4-44------0-0-00-------------|
|--4-4-44------0-0-00-------------|
|--2-2-22------2-2-22-------------|
|---------------------------------|

WHEN I SIT BACK AND OPEN MY EYES  I SEE WERE LIVIN TO SEPERATE LIVES
|-0-0-00-0-0---0-0-00-0-0-----5-5-55-5-5---5-5-55-5-5----|
|-3-3-33-3-3---3-3-33-3-3-----5-5-55-5-5---5-5-55-5-5----|
|-2-2-22-2-2---2-2-22-2-2-----6-6-66-6-6---6-6-66-6-6----|
|-0-0-00-0-0---0-0-00-0-0-----7-7-77-7-7---7-7-77-7-7----|
|-----------------------------7-7-77-7-7---7-7-77-7-7----|
|--------------------------------------------------------|

LIKE WERE TRYING...FROM A ROLLERCOASTER RIDE
|--0-0-00------0-0-00-------------|
|--3-3-33------3-3-33-------------|
|--4-4-44------0-0-00-------------|
|--4-4-44------0-0-00-------------|
|--2-2-22------2-2-22-------------|
|---------------------------------|

ITS HARD TO SEE THROUGH H.T.B.. ITS HARD TO SEE....
|-0-0-00-0-0---0-0-00-0-0-----5-5-55-5-5---5-5-55-5-5----|
|-3-3-33-3-3---3-3-33-3-3-----5-5-55-5-5---5-5-55-5-5----|
|-2-2-22-2-2---2-2-22-2-2-----6-6-66-6-6---6-6-66-6-6----|
|-0-0-00-0-0---0-0-00-0-0-----7-7-77-7-7---7-7-77-7-7----|
|-----------------------------7-7-77-7-7---7-7-77-7-7----|
|--------------------------------------------------------|
{hard to see}.....
|--0-0-00-------0~-----|
|--3-3-33-------3~-----|
|--4-4-44-------0~-----|
|--4-4-44-------0~-----|
|--2-2-22-------2~-----|
|----------------------|

|----------------------------------------------------|
|----------------------------------------------------|
|----------------------------------------------------|
|------------------------------------------------7---|
|--5-------5------5------5------5---------5--5---5---|
|----5-4-----5-4----5------5-4-----5-4----5--4-------|


YEA THATS MY TAB.. HOPE YALL LIKE IT AND YEAA RATE IT N COMMENT IT
ITS EXACTLY RIGHT IF IT WAS IN ROCK N YEAA RATE IT :)
FROMM THISS REZZ BOII!! 14 yrs oldd yeapp  PEACCEE

~ -- let it ring
comments
print report bad tab
5 comments total. Showing first comments.
0 reply
clowns1564 wrote on February 21 2008, 10:57 pm

dont get it

0 reply
brazen wrote on February 26 2008, 05:15 pm

sounded way the hell off to me and u need to calm down not everything HAS TO BE IN CAPITALS OKAY WE CAN READ DONT WORRY

0 reply
xXGuerreroXx wrote on April 12 2008, 06:54 pm

srsly this sucks . its way off and a lot of parts are wrong

I want to post or [tab]
guest
You may want to rate the tab now too:
select rating
Please do not post tabs as comments. Select "correction" instead!