Oops, an error
Loading. Please wait.

Money Honey Bass Tab

version 1
version 1

Whole song

Interactive

2,166 views 1 this week
3 commentsread comments
1 2 3 4 5
x 3
add to favorites
launch autoscroll
font size
0
reset
guitar tuner
Autoscroll
slow
fast
+/-
esc
set tempo
stop
Help us to improve Ultimate-Guitar.com Take our survey!
×
Author
Tuning
D A D G B E

      (Intro/Verse)
  D|---0-----8-----3-----10---|
  A|--------------------------|
  D|--------------------------|x4
  G|--------------------------|

      (Chorus)
  |---55555555-11111111----------33333333---|
  |---------------------33333333------------|
  |-----------------------------------------|x2
  |-----------------------------------------|

  |---000-----333-----|---000-----3---|
  |-------111-----333-|-------111-----|
  |-------------------|---------------|x1
  |-------------------|---------------|

      (Verse)
  |---0-----8-----3-----10---|
  |--------------------------|
  |--------------------------|x4
  |--------------------------|

    (Chorus)
  |---55555555-11111111----------33333333---|
  |---------------------33333333------------|
  |-----------------------------------------|x2
  |-----------------------------------------|

  |---000-----333-----|---000-----3---|
  |-------111-----333-|-------111-----|
  |-------------------|---------------|x1
  |-------------------|---------------|

  |---00000000-88888888-33333333-1010101010101010---|
  |-------------------------------------------------|
  |-------------------------------------------------|x1
  |-------------------------------------------------|

  |---00000000-88888888-33333333-10---|
  |-----------------------------------|
  |-----------------------------------|x1
  |-----------------------------------|

  |---0-----8-----3-----10---|
  |--------------------------|
  |--------------------------|x1
  |--------------------------|

   (Chorus)
  |---55555555-11111111----------33333333---|
  |---------------------33333333------------|
  |-----------------------------------------|x2
  |-----------------------------------------|

  |---000-----333-----|---000-----3---|
  |-------111-----333-|-------111-----|
  |-------------------|---------------|x1
  |-------------------|---------------|

  |---00000000-88888888-33333333-1010101010101010---|
  |-------------------------------------------------|
  |-------------------------------------------------|x1
  |-------------------------------------------------|

  |---00000000-88888888-33333333-10---|
  |-----------------------------------|
  |-----------------------------------|x1
  |-----------------------------------|

  |---0-----8-----3-----10---|
  |--------------------------|
  |--------------------------|x1
  |--------------------------|

If you have any corrections just e-mail me at da.bass.boy@hotmail.com
Suggest correction
Give kudos to tab author, rate the tab!
1 2 3 4 5
comments
print report bad tab
3 comments total.
0 reply
brazen 115 Jan 16, 2008 05:46 PM

havent played this yet but it looks okay.

HOWEVER you did the tip upside down. should
be:
G:---
D:---
A:---
D:---

0 reply
brazen 115 Jan 16, 2008 06:04 PM

Tab*

0 reply
brazen 115 Feb 24, 2008 06:42 PM

its not that great. it shud be drop Db and the chorus is wrong

guest
You may want to rate the tab now too:
select rating
Wanna post a correction for this tab? Suggest correction