Oops, an error
Loading. Please wait.

Money Honey Tab

version 1
version 1

Whole song

Interactive

23,303 views 15 this week
8 commentsread comments
1 2 3 4 5
excellent!
x 11
add to favorites
launch autoscroll
font size
0
reset
how to read this tab
guitar tuner
Tab Pro tools
  • play this tab
  • loop segment
  • change instrument
  • show fretboard
  • metronome
×
Best way to learn
"Money Honey"
Autoscroll
slow
fast
+/-
esc
set tempo
stop
Contributor
Tuning
D A D G B E
State Of Shock - Money Honey 
Life, Love & Lies (2007)
Drop D Tuning (Db Ab Db Gb Bb Eb) 


Intro/verse w/delay
Gtr I
|--------------|---------------|--------------|------------------|
|--------------|---------------|--------------|------------------|
|--------------|---------------|-------0-2----|----------10-9----|
|-----0-2-3----|-----8-10-8----|-----3--------|-------10---------|
|---0----------|---8-----------|---3----------|----10------------|
|-0------------|-8-------------|-3------------|-10---------------|


|--------------|---------------|--------------|------------------|
|--------------|---------------|--------------|------------------|
|--------------|---------------|-------0-2----|----------10-9----|
|-----0-2-3----|-----8-10-8----|-----3--------|-------10---------|
|---0----------|---8-----------|---3----------|----10------------|
|-0------------|-8-------------|-3------------|-10---------------|


|--------------|---------------|--------------|------------------|
|--------------|---------------|--------------|------------------|
|--------------|---------------|-------0-2----|----------10-9----|
|-----0-2-3----|-----8-10-8----|-----3--------|-------10---------|
|---0----------|---8-----------|---3----------|----10------------|
|-0------------|-8-------------|-3------------|-10---------------|


Pre-chorus
|-------1-----------3----|
|-3-----1-----6-----3----|
|-2-----3-----5-----5----|
|-0-----3-----3-----5----|
|-0-----1-----3-----3----|
|-0-----------3----------|


Chorus
|-----------------|-----------------|-----------------|-----------------|
|-----------------|-----------------|-----------------|-----------------|
|-7-7-7-7-7-7-7-7-|-3-3-3-3-3-3-3-3-|-----------------|-5-5-5-5-5-5-5-5-|
|-7-7-7-7-7-7-7-7-|-3-3-3-3-3-3-3-3-|-3-3-3-3-3-3-3-3-|-5-5-5-5-5-5-5-5-|
|-5-5-5-5-5-5-5-5-|-1-1-1-1-1-1-1-1-|-3-3-3-3-3-3-3-3-|-3-3-3-3-3-3-3-3-|
|-----------------|-----------------|-3-3-3-3-3-3-3-3-|-----------------|


|-----------------|-----------------|-----------------|-----------------|
|-----------------|-----------------|-----------------|-----------------|
|-7-7-7-7-7-7-7-7-|-3-3-3-3-3-3-3-3-|-----------------|-5-5-5-5-5-5-5-5-|
|-7-7-7-7-7-7-7-7-|-3-3-3-3-3-3-3-3-|-3-3-3-3-3-3-3-3-|-5-5-5-5-5-5-5-5-|
|-5-5-5-5-5-5-5-5-|-1-1-1-1-1-1-1-1-|-3-3-3-3-3-3-3-3-|-3-3-3-3-3-3-3-3-|
|-----------------|-----------------|-3-3-3-3-3-3-3-3-|-----------------|


|-----------------------------|---------------|-------------|
|-----------------------------|---------------|-------------|
|--------3--3-3--------5--5-5-|--------3--3-3-|-------------|
|-0--0-0-3--3-3-3--3-3-5--5-5-|-0--0-0-3--3-3-|-3--3-3-5----|
|-0--0-0-1--1-1-3--3-3-3--3-3-|-0--0-0-1--1-1-|-3--3-3-3----|
|-0--0-0--------3--3-3--------|-0--0-0--------|-3--3-3-5----|


Intro/verse
|--------------|---------------|--------------|------------------|
|--------------|---------------|--------------|------------------|
|--------------|---------------|-------0-2----|----------10-9----|
|-----0-2-3----|-----8-10-8----|-----3--------|-------10---------|
|---0----------|---8-----------|---3----------|----10------------|
|-0------------|-8-------------|-3------------|-10---------------|


|--------------|---------------|--------------|------------------|
|--------------|---------------|--------------|------------------|
|--------------|---------------|-------0-2----|----------10-9----|
|-----0-2-3----|-----8-10-8----|-----3--------|-------10---------|
|---0----------|---8-----------|---3----------|----10------------|
|-0------------|-8-------------|-3------------|-10---------------|


|--------------|---------------|--------------|------------------|
|--------------|---------------|--------------|------------------|
|--------------|---------------|-------0-2----|----------10-9----|
|-----0-2-3----|-----8-10-8----|-----3--------|-------10---------|
|---0----------|---8-----------|---3----------|----10------------|
|-0------------|-8-------------|-3------------|-10---------------|

Pre-chorus
|----------|-1--------|----------|-3----|
|-3--------|-1--------|-6--------|-3----|
|-2--------|-3--------|-5--------|-5----|
|-0--------|-3--------|-3--------|-5----|
|-0--------|-1--------|-3--------|-3----|
|-0--------|----------|-3--------|------|

Chorus
|-----------------|-----------------|-----------------|-----------------|
|-----------------|-----------------|-----------------|-----------------|
|-7-7-7-7-7-7-7-7-|-3-3-3-3-3-3-3-3-|-----------------|-5-5-5-5-5-5-5-5-|
|-7-7-7-7-7-7-7-7-|-3-3-3-3-3-3-3-3-|-3-3-3-3-3-3-3-3-|-5-5-5-5-5-5-5-5-|
|-5-5-5-5-5-5-5-5-|-1-1-1-1-1-1-1-1-|-3-3-3-3-3-3-3-3-|-3-3-3-3-3-3-3-3-|
|-----------------|-----------------|-3-3-3-3-3-3-3-3-|-----------------|


|-----------------|-----------------|-----------------|-----------------|
|-----------------|-----------------|-----------------|-----------------|
|-7-7-7-7-7-7-7-7-|-3-3-3-3-3-3-3-3-|-----------------|-5-5-5-5-5-5-5-5-|
|-7-7-7-7-7-7-7-7-|-3-3-3-3-3-3-3-3-|-3-3-3-3-3-3-3-3-|-5-5-5-5-5-5-5-5-|
|-5-5-5-5-5-5-5-5-|-1-1-1-1-1-1-1-1-|-3-3-3-3-3-3-3-3-|-3-3-3-3-3-3-3-3-|
|-----------------|-----------------|-3-3-3-3-3-3-3-3-|-----------------|


|---------------|---------------|-----------------------------------------------|
|---------------|---------------|-----------------------------------------------|
|--------3--3-3-|--------5--5-5-|--------3--3-3------10-10--9-9------10-10--5-5-|
|-0--0-0-3--3-3-|-3--3-3-5--5-5-|-0--0-0-3--3-3--3-3--8--8--7-7--0-0--8--8--5-5-|
|-0--0-0-1--1-1-|-3--3-3-3--3-3-|-0--0-0-1--1-1--3-3--8--8--7-7--0-0--8--8--3-3-|
|-0--0-0--------|-3--3-3--------|-0--0-0---------3-3-------------0-0------------|

Bridge
|-----------------|-----------------|-----------------|-----------------|
|-----------------|-----------------|-----------------|-----------------|
|-3-3-3-3-3-3-3-3-|-----------------|-----------------|-----------------|
|-3-3-3-3-3-3-3-3-|-3-3-3-3-3-3-3-3-|-0-0-0-0-0-0-0-0-|-5-5-5-5-5-5-5-5-|
|-1-1-1-1-1-1-1-1-|-3-3-3-3-3-3-3-3-|-0-0-0-0-0-0-0-0-|-3-3-3-3-3-3-3-3-|
|-----------------|-3-3-3-3-3-3-3-3-|-0-0-0-0-0-0-0-0-|-5-5-5-5-5-5-5-5-|

|-----------------|-----------------|-----------------|-----------------|
|-----------------|-----------------|-----------------|-----------------|
|-3-3-3-3-3-3-3-3-|-----------------|-----------------|-----------------|
|-3-3-3-3-3-3-3-3-|-3-3-3-3-3-3-3-3-|-0-0-0-0-0-0-0-0-|-5-5-5-5-5-5-5-5-|
|-1-1-1-1-1-1-1-1-|-3-3-3-3-3-3-3-3-|-0-0-0-0-0-0-0-0-|-3-3-3-3-3-3-3-3-|
|-----------------|-3-3-3-3-3-3-3-3-|-0-0-0-0-0-0-0-0-|-5-5-5-5-5-5-5-5-|

----------------------------------------------------------------------------------

Tablature Legend
----------------
 h   - hammer-on
 p   - pull-off
 b   - bend
 pb  - pre-bend
 r   - bend release (if no number after the r, then release immediately)
 /\  - slide into or out of (from/to "nowhere")
 s   - legato slide
 S   - shift slide
 - natural harmonic
[n]  - artificial harmonic
n(n) - tapped harmonic
 ~   - vibrato
 tr  - trill
 T   - tap
 TP  - trem. picking
 PM  - palm muting
\n/  - tremolo bar dip; n = amount to dip
 \n  - tremolo bar down
 n/  - tremolo bar up
/n\  - tremolo bar inverted dip
 =   - hold bend; also acts as connecting device for hammers/pulls
 <> - volume swell (louder/softer)
 x   - on rhythm slash represents muted slash
 o   - on rhythm slash represents single note slash
comments
print report bad tab
8 comments total. Showing first comments.
0 reply
]AG[ Scott wrote on May 17 2007, 09:27 pm

Very good! Thank you so much... so helpful!

0 reply
plugy wrote on July 16 2007, 07:47 pm

in the pre-chorus theres some filler there but i can't figure it out...1 cookie for whoever can..

0 reply
italyguitarchic wrote on August 19 2007, 09:37 pm

Awesome Tab! Sounds Great.
Thx, I love this song!! =)

I want to post or [tab]
guest
You may want to rate the tab now too:
select rating
Please do not post tabs as comments. Select "correction" instead!