Oops, an error
Loading. Please wait.

Black Cab Motorcade bass

1,170 views 1 this week
1 commentread comment
1 2 3 4 5
2 more votes to show rating
add to favorites
×
Save as Personal and add changes to this tab that will be seen only by you. Learn more ›
×
You can save this tab as Personal to edit and correct it or add notes. All changes will be seen only by you. Learn more »
launch autoscroll
font size
0
reset
guitar tuner
edit
Autoscroll
slow
fast
+/-
esc
set tempo
stop
Author
Though it isn't one of their best-known, this is a good song, and should be played with some distortion.
Verse: (Play 2x for the verse)
G|-----------------------------------------------------------------------------|
D|-----------------------------------------------------------------------------|
A|33333333-00000000-55555555---------------------------------------------------|
E|-----------------------------33333333----------------------------------------|
Alternate Verse ending for when chad sings "hollow points in the concrete", play verse 1x then
G|-----------------------------------------------------------------------------|
D|-----------------------------------------------------------------------------|
A|33333333-00000000-55555555-33333333-00000000-22222222------------------------|
E|-----------------------------------------------------------------------------|
Bridge where Chad sings "Forget Your Loss", ect. (2x)
G|---------------------------------------------------------------------------|
D|---------------------------------------------------------------------------|
A|-3----------------2--------3----------------2------------------------------|
E|----------3-------------------------3--------------------------------------|
To Go To Verse 2 after Bridge Play Bridge line 1x then
G|-----------------------|----------------------------|------------------------|
D|-----------------------|----------------------------|------------------------|
A|-3----------------2----|----3-----------------------|---2---2----------------|
E|----------3------------|------------3--------3-3-3-3|-30---3-----------------|
Chorus: 4x
G|-----------------------------------------------------------------------------|
D|-----------------------------------------------------------------------------|
A|--------------------55555555-33333333----------------------------------------|
E|-55555555-77777777-----------------------------------------------------------|
Verse w/ stoccato bass after bassless interlude: (4x)
G|-----------------------------------------------------------------------------|
D|-----------------------------------------------------------------------------|
A|-23-------30-------05-------53-----------------------------------------------|
E|-----------------------------------------------------------------------------|
Solo: Till end bass plays this:
G|---------------------------------------------------------------------------|
D|---------------------------------------------------------------------------|
A|--------55------33-------22------------------------------------------------|
E|-55------------------------------------------------------------------------|
Please rate well!

            
            
Suggest correction
Creating personal tab
Creating personal tab
You can edit any tab online and save it as your Personal.

You can edit, replace or remove any tab part or add personal notes – all changes will be seen only by you.

Personal tabs can be accessed anytime from any device, even offline.
Learn more »
Give kudos to tab author, rate the tab!
1 2 3 4 5
comments
print report bad tab
1 comment total.
0 reply
food1010 295 Sep 30, 2008 11:20 AM

Kick ass song man, thanks for the tab. Not completely correct, but I was too lazy to figure it out from scratch so it helped me out.

guest
You may want to rate the tab now too:
select rating
Wanna post a correction for this tab? Suggest correction