Oops, an error
Loading. Please wait.

Heady Riser bass

version 2
version 2

Whole song

200 views 1 this week
no commentswrite comment
1 2 3 4 5
3 more votes to show rating
add to favorites
×
Save as Personal and add changes to this tab that will be seen only by you. Learn more ›
×
You can save this tab as Personal to edit and correct it or add notes. All changes will be seen only by you. Learn more »
launch autoscroll
font size
0
reset
guitar tuner
edit
Autoscroll
slow
fast
+/-
esc
set tempo
stop
Author
Difficulty
-------------------------------------------------------------------------------
	      Heady Riser – State Radio – Peace Between Nations
-------------------------------------------------------------------------------

Tabbed By: food1010
e-mail: food1010@aim.com

Tuning: Standard EADG

This may not be exactly how the song is played but it sounds pretty good to me.

The bass is very quiet most of the time, so play very softly. If you need to,
put on some extra volume; it’s less prominent than the singing, but still
heard.

There is only bass in the second half of the first chorus, and from the second
half of the second chorus to the end. That should be pretty easy to figure out.

The timing should also be pretty easy to figure out. Sections with double digit
fretting will appear longer, but go by the spaces in between the numbers.

   (1:36)
G|---------------------------------------------------------------------------|
D|-----------------------10--------------------------------------------------|
A|--------------------10----10--------10-------------------------------------|
E|-12-12---12-8-8---8--------------------12-\--------------------------------|

   (1:42)
G|---------------------------------------------------------------------------|
D|----------------------9---------9------------------------------------------|
A|--------------------9---9-----9---9----------------------------------------|
E|-12-12---7-8--8---8---------7----------------------------------------------|

   (1:47)
G|---------------------------------------------------------------------------|
D|----------------------------------10-10-10---------------------------------|
A|-------------------------------10----------10------------------------------|
E|-12--8-8-12--8-8-8-8-8---8---8----------------8----------------------------|

   (1:53)
G|---------------------------------------------------------------------------|
D|-----------------------------9---------9-----------------------------------|
A|---------------------------9---9-----9---9---------------------------------|
E|-12--8-8-12--8-8-8-8-8---8---------7---------------------------------------|

   (2:00)
G|---------------------------------------------------------------------------|
D|-Don’t play----------------------------------------------------------------|
A|-until 3:41----------------------------------------------------------------|
E|---------------------------------------------------------------------------|

   (3:41)                         (3:47)
G|------------------------------|--------------------------------------------|
D|------------------------------|--------------------------------------------|
A|------------------------------|--------------------------------------------|
E|-12-----8----/12--------------|-12-----8-----7-----10----------------------|

   (4:05)
G|---------------------------------------------------------------------------|
D|---------------------------------------------------------------------------|
A|---------------------------------------------------------------------------|
E|-15-15---10-12-12---5-7-7---10--7-7-7--------------------------------------|

   (4:11)
G|---------------------------------------------------------------------------|
D|---------------------------------------------------------------------------|
A|---------------------------------------------------------------------------|
E|-15-15---10-12-12---5-7-7---10--7---7--------------------------------------|

   (4:17)
G|---------------------------------------------------------------------------|
D|---------------------------------------------------------------------------|
A|-------------------------------------10------------------------------------|
E|-15-15---5-7-7---7/10-10---10-10--------12---------------------------------|

   (4:23)                  (4:30)
G|-----------------------|---------------------------------------------------|
D|-----------------------|---------------------------------------------------|
A|-----------------------|---------------------------------------------------|
E|-15-15-------5-5-------|-10--------------10-(short)------------------------|

   (4:35)
G|---------------------------------------------------------------------------|
D|---------------------------------------------------------------------------|
A|-----------------10------------10------------------------------------------|
E|-12-12---8-8---8----12-12---------12---------------------------------------|

   (4:41)
G|---------------------------------------------------------------------------|
D|---------------------------------------------------------------------------|
A|-------------------------10--10--------------------------------------------|
E|-12------7-7-7-7---8-8------------12--12-----------------------------------|

   (4:47)
G|---------------------------------------------------------------------------|
D|---------------------------------------------------------------------------|
A|-------------------------------------10------------------------------------|
E|-12-12---7-7-7-7---8-8---12--12---------12---------------------------------|

   (4:52) Begin to fade out now
G|---------------------------------------------------------------------------|
D|---------------------------------------------------------------------------|
A|--------------------10--10-----------14------------------------------------|
E|-12-12------7-8-8--------------14-12---------------------------------------|

   (4:57)                            (5:03)
G|---------------------------------|-----------------------------------------|
D|---------------------------------|-----------------------------------------|
A|---------------------------------|----------------------------14-----------|
E|-12-12----7-7-8-8-------12--12---|-12----8---12-12------12-14--------------|

   (5:09)
G|---------------------------------------------------------------------------|
D|---------------------------------------------------------------------------|
A|---------------------------------------------------------------------------|
E|-12----8-------------------------------------------------------------------|


| /  slide up
| \  slide down
| h  hammer-on
| p  pull-off
| ~  vibrato
| +  harmonic
| x  Mute note
===============================================================================

            
            
Suggest correction
Creating personal tab
Creating personal tab
You can edit any tab online and save it as your Personal.

You can edit, replace or remove any tab part or add personal notes – all changes will be seen only by you.

Personal tabs can be accessed anytime from any device, even offline.
Learn more »
Give kudos to tab author, rate the tab!
1 2 3 4 5
comments
print report bad tab
guest
You may want to rate the tab now too:
select rating
Wanna post a correction for this tab? Suggest correction