Oops, an error
Loading. Please wait.

Indian Moon tab

33,185 views 18 this week
4 commentsread comments
1 2 3 4 5
x 11
add to favorites
×
Save as Personal and add changes to this tab that will be seen only by you. Learn more ›
×
You can save this tab as Personal to edit and correct it or add notes. All changes will be seen only by you. Learn more »
launch autoscroll
font size
0
reset
how to read this tab
guitar tuner
edit
Autoscroll
slow
fast
+/-
esc
set tempo
stop
 Em     CM7 Em  D       C
-7------7---7---5-------8---|
-8------8---8---7-------8---|
-9------9---9---7-------9---|    x6
-9------9---9---7-------10--|
-7------x---7---5-------10--|
--------8---7-----------8---|
On this earth not alone we stand
Outstretched arm and upturned hand
Never knowing when the shakes steady
And 'till now we have seldom seen
And I will go if you go with me
Understand I will wait for thee
I'll try to catch up if you move quickly
If the rain does blow
 G      D       C       D
-7------5-------8-------5--|
-8------7-------8-------7--|
-7------7-------9-------7--|     x2
-9------7-------10------7--|
-10-----5-------10------5--|
----------------8----------|
And oh sir
If you ever lose your way
You can call upon this family
You can call upon this day
And old man
If you ever lose your way
You can call up on this family
You can call upon this day

 Em     C       G       D
-7------3-------3-------5--|
-8------5-------3-------7--|
-9------5-------4-------7--|     x10
-9------5-------5-------7--|
-7------3-------5-------5--|
----------------3----------|
'Cause you're my present my future
My lesson my teacher
Oh... My world is still
You're my God you're my guide
In my life I confide to ever shelter your will
And my words are forerver you're my blanket my shiver
Whatever you give I'll never lack

You're my chorus my refrain
The verse of my first pain
Let the voices come barrelling back

'Cause I can stand to stay right where I am
Let the water fill this hand
Bring it to your mouth
And pass beyond your lips
No gale can down this ship

And I'll stand on your shoulders
To watch us grow older
I can see us far along the road
As the trail grows deeper
your my giver my keeper
Laughter for years untold

'Cause I can stand to stay right where I am
Let the water fill this hand
Bring it to your mouth
And pass beyond your lips
No gale can down this ship

 Em     C       G       D
-0------0-------3-------2--|
-0------1-------3-------3--|
-0------0-------0-------2--|     x4
-2------2-------0-------0--|
-2------3-------2----------|
-0--------------3----------|
And wherever you go there you are
And if I go I won't go far
Wherever you go
There you are
And if I go I won't go far


 G      D       C       D       G
-7------5-------3-------5-------7---|
-8------7-------5-------7-------8---|
-7------7-------5-------7-------7---|    x1
-9------7-------5-------7-------9---|
-10-----5-------3-------5-------10--|
------------------------------------|
And oh sir
If you ever lose your way
You can call upon this family
You can call upon this day

            
            
Suggest correction
Creating personal tab
Creating personal tab
You can edit any tab online and save it as your Personal.

You can edit, replace or remove any tab part or add personal notes – all changes will be seen only by you.

Personal tabs can be accessed anytime from any device, even offline.
Learn more »
comments
print report bad tab
4 comments total. Showing first comments.
0 reply
BLewis 10 Aug 16, 2008 02:12 PM

Great song, I have some lyric corrections though:

Chorus:
And oh sir
If you ever lose your way
You can call upon this family
You can call upon this day
And *oh ma'am*
If you ever lose your way
You can call up on this family
You can call upon this day

2nd Verse:
'Cause you're my present my future
My lesson my teacher
Oh... My world is still
You're my *guard* you're my guide
In my life I confide to ever shelter your will
And my words are forerver you're my blanket my shiver
Whatever you give I'll never lack

that's it, great song accurate chords but it's hard to understand Chad sometimes with his Rasta/Reggae sounding voice!

Thanks for the tab,
-Blake

0 reply
stupid_cow5566 10 Oct 28, 2008 04:43 PM

The first time you play the D chord play it like this

D
-10----------------------|
-10----------------------|
-11----------------------|
-12----------------------|
-12----------------------|
-10----------------------|

0 reply
stupid_cow5566 10 Oct 28, 2008 04:43 PM

The first time you play the D chord play it like this

D
-10----------------------|
-10----------------------|
-11----------------------|
-12----------------------|
-12----------------------|
-10----------------------|

guest
Wanna post a correction for this tab? Suggest correction