Oops, an error
Loading. Please wait.
We have an official Black And White tab made by UG professional guitarists. Check out the tab »
×
474 views 1 this week
no commentswrite comment
1 2 3 4 5
3 more votes to show rating
add to favorites
×
Save as Personal and add changes to this tab that will be seen only by you. Learn more ›
×
You can save this tab as Personal to edit and correct it or add notes. All changes will be seen only by you. Learn more »
launch autoscroll
font size
0
reset
guitar tuner
edit
Autoscroll
slow
fast
+/-
esc
set tempo
stop
Band: Static-X
Song: Black and White
Album: Machine
Tabbed by: Kyle (kyleclark0_8@hotmail.com)

This is my first attempt at a tab so please bear with me 
and if its totally wrong feel free to let me know. 
This song has strange tuning, my bass teacher told me to 
play it in standard tuning but I think if you 
tune the A and D strings down a step it will be correct 
although you can play it in standard tuning and 
it sounds fine in my oppinion.

The main riff is like this listen to the song to pick up timing. 
Sometimes in the song you don't play the last '7' you might want to 
experiment with it a bit.

|-------------------------|
|---6--------------------|
|------7--8--7--8--7--|
|------------------------|

The, "losing your mind," bit (the slower part) goes like this:
|---------------------------------------------------------------|
|--------------------------------------------------------------|
|---4---4-4-4---6---6-6-6---7---7-7-7---6---6-6-6---|
|-------------------------------------------------------------|

Again, in standard EADG tuning this will sound higher than the song, 
you might have to fiddle with the tuning.
===========


Static-x - Black And White
Tabbed By: j0e
EMail: bmxfreak223


sry about that the intro chourus and bridge are all done on the e 
string

[-------------------------------------]
[-------------------------------------]
[-2-----------------------------------]
[---3--4--3--3--5--3--4--3-3----------]

            
            
Suggest correction
Creating personal tab
Creating personal tab
You can edit any tab online and save it as your Personal.

You can edit, replace or remove any tab part or add personal notes – all changes will be seen only by you.

Personal tabs can be accessed anytime from any device, even offline.
Learn more »
Give kudos to tab author, rate the tab!
1 2 3 4 5
comments
print report bad tab
guest
Wanna post a correction for this tab? Suggest correction