Oops, an error
Loading. Please wait.

Chroma-Matic tab

version 1
version 1

Whole song

Interactive

1,627 views 9 this week
2 commentsread comments
1 2 3 4 5
1 last vote to show rating
add to favorites
×
Save as Personal and add changes to this tab that will be seen only by you. Learn more ›
×
You can save this tab as Personal to edit and correct it or add notes. All changes will be seen only by you. Learn more »
launch autoscroll
font size
0
reset
how to read this tab
guitar tuner
edit
Autoscroll
slow
fast
+/-
esc
set tempo
stop
I admit my first attempt at this was pretty shit, so four years later when no one actually listens 
to this song any more, I've had another go. I've even bothered with the solo!

Intro:

B|-------------------------------------|-------------------------------------|
G|-------------------------------------|-------------------------------------|
D|-------------------------------------|-------------------------------------|
A|-------------------------------------|-------------------------------------|
E|----------------------------3--4--5--|----------------------------5--4--3--|
A|-12-0-0-0-13-0-0-0-12-0-0-0-3--4--5--|-12-0-0-0-13-0-0-0-12-0-0-0-5--4--3--|

Chorus:

B|--------------------------------------------------------|
G|--------------------------------------------------------|
D|--------------------------------------------------------|
A|-2-2-2---8-8-8-2-2-2---8-8-8-2-2-2---8-8-8-2-2-2--7-8-9-|
E|-2-2-2---8-8-8-2-2-2---8-8-8-2-2-2---8-8-8-2-2-2--7-8-9-|
A|-2-2-2---8-8-8-2-2-2---8-8-8-2-2-2---8-8-8-2-2-2--7-8-9-|

Solo:
It's not quite exact but I don't quite give a shit. Just piss about with it and mess around with a 
Wah pedal and no one will notice.

B|----------------|------------|-----------------------------------------|----------------------------|
G|----------------|------------|-----------------------------------------|----------------------------|
D|/13-12b13--12b13|-11b12-11b12|-----------------------------------------|--------------12h13h14p13p12|
A|----------------|------------|-14-14b1515-14h15h16p15p14-14h15h16p15p14|14h15h16p15p14--------------|
E|----------------|------------|-----------------------------------------|----------------------------|
A|----------------|------------|-----------------------------------------|----------------------------|

B|--------------12h13h14p14p12|-14b151515 15h16h17p16p15|-15h16h17p16p15-15h16h17p16p15-|17b19-b19\||
G|12h13h14p13p12--------------|-------------------------|-------------------------------|----------||
D|----------------------------|-------------------------|-------------------------------|----------||
A|----------------------------|-------------------------|-------------------------------|----------||
E|----------------------------|-------------------------|-------------------------------|----------||
A|----------------------------|-------------------------|-------------------------------|----------||

Outro:

B|----------------------------------|
G|----------------------------------|
D|----------------------------------|
A|----------------------------------|
E|----------------------------5--5--|
A|-12-0-0-0-13-0-0-0-12-0-0-0-5--5--|

Order:
Intro x 2
Chorus x 2
Intro x 1
Chorus x 2
Intro x 8
Solo
Chorus x 2
Intro x 3
outro x 1


            
            
Suggest correction
Creating personal tab
Creating personal tab
You can edit any tab online and save it as your Personal.

You can edit, replace or remove any tab part or add personal notes – all changes will be seen only by you.

Personal tabs can be accessed anytime from any device, even offline.
Learn more »
Give kudos to tab author, rate the tab!
1 2 3 4 5
comments
print report bad tab
2 comments total.
0 reply
adrinhxc 51 Nov 13, 2009 01:41 PM

really dude, ur poor guitar couldent hold drop a? BUY NEW STRINGS! like, hmm, MAYBE ERNIE BALL BEEFY SLINKY STRINGS, 11 guage, hold drop a like a beast!!!! only 6$ at guitar center, DO IT!!! and please, PLEASE put up a correct tab. thank you

0 reply
adrinhxc 51 Nov 23, 2009 02:51 PM

regarding my last comment, dont put up a new tab, cause i submitted my own everything in it is perfect sept i dont know that solo, soo yeahh.

guest
You may want to rate the tab now too:
select rating
Wanna post a correction for this tab? Suggest correction