Oops, an error
Loading. Please wait.

Gimme Gimme Shock Treatment Bass Tab

113 views 3 this week
no commentswrite comment
1 2 3 4 5
excellent!
x 3
add to favorites
launch autoscroll
font size
0
reset
guitar tuner
Tab Pro tools
  • play this tab
  • loop segment
  • change instrument
  • show fretboard
  • metronome
Autoscroll
slow
fast
+/-
esc
set tempo
stop
Contributor
Difficulty
Tuning
intermediate
D G C F A D
-----------------------------------------------------------------------------
                             Gimme Gimme Shock Treatment - Static X
-----------------------------------------------------------------------------
Tabbed by: Andu Needle
E-mail: sulfur_in_my_lungs@yahoo.com

The bass part from the begining:

F|-------------------------------------------------------------|
C|-------------------------------------------------------------|
G|-0-50-50-80-60-----------------------------------------------|
D|-------------------------------------------------------------|

Intro & Main riff:

F|-------------------------------------------------------------|
C|-------------------------------------------------------------|
G|-5x5x5-03----------------------------------------------------|
D|-------------------------------------------------------------|

Verse:

F|-------------------------------------------------------------|
C|-------------------------------------------------------------|
G|----------55555555-------------------------------------------|
D|-55553333----------------------------------------------------|

Verse break:

F|-------------------------------------------------------------|
C|-------------------------------------------------------------|
G|----555----777-----------------------------------------------|
D|-55-----77---------------------------------------------------|

Chorus:

F|-------------------------------------------------------------|
C|-------------------------------------------------------------|
G|-------------------------------------------------------------|
D|-11111111-33333333-------------------------------------------|

Basically these are the parts. And now their order:

The bass part from the begining x3
Intro/Main riff x8
Verse x4
Verse break x2
Verse x4
Chorus x4
Main riff x4
Verse x4
Verse Break x4
Verse x4
Chorus x8
The bass part from the begining x3
Main riff after bridge: Look below.
Chorus x8
The ending notes are 4 3s from the chorus.

Main riff after bridge:

F|--------------------------------------------------------------|
C|--------------------------------------------------------------|
G|-5x5x5-03(x3)-5x5x5-03-03-03-03-------------------------------|
D|--------------------------------------------------------------|

The song may be in Drop C, dunno. But for me it sounds good.
comments
We did not receive enough feedback on this tab! Please rate:
print report bad tab
1 2 3 4 5
I want to post or [tab]
guest
You may want to rate the tab now too:
select rating
Please do not post tabs as comments. Select "correction" instead!