Oops, an error
Loading. Please wait.

I Am tab

version 2
version 2

Whole song

Interactive

144 views 1 this week
no commentswrite comment
1 2 3 4 5
3 more votes to show rating
add to favorites
×
Save as Personal and add changes to this tab that will be seen only by you. Learn more ›
×
You can save this tab as Personal to edit and correct it or add notes. All changes will be seen only by you. Learn more »
launch autoscroll
font size
0
reset
how to read this tab
guitar tuner
edit
Autoscroll
slow
fast
+/-
esc
set tempo
stop
Author
Opening is just an open palm muted strum on the C,G, and C strings,
with a little distortion.


(0:25)
D:----------------------------------------|
A:----------------------------------------|
F:--------9---------9---------9-----------|
C:--------x---------x---------x-----------|
G:--------7---------7---------7-----------|
C:---0-0------0-00-------0-0--------------|

D:---------------------------------------------|
A:---------------------------------------------|
F:---------9-----------------------------------|
C:---------x------3-0--3-0--3-0--3-00-5-5-3-0--|
G:---------7------3-0--3-0--3-0--3-00-5-5-3-0--|
C:---0-00---------3-0--3-0--3-0--3-00-5-5-3-0--|

(Chorus)
D:---------------------------------------------------------|
A:---------------------------------------------------------|
F:---------------------------------------------------------|
C:0000--9-9-9---0-0--9-9-9--0-0--9-9-9-9--0-0--1-1-1-------|
G:0000--9-9-9---0-0--9-9-9--0-0--9-9-9-9--0-0--1-1-1-------|
C:0000--9-9-9---0-0--9-9-9--0-0--9-9-9-9--0-0--1-1-1-------|
-
(1:06)
D:-------------------------------------------|
A:-------------------------------------------|
F:--------9---------9---------9-------9------|
C:--------x---------x---------x-------x------|
G:--------7---------7---------7-------7------|
C:---0-0------0-00-------0-0-----0-00--------|

("Brush the surface off..")
D:----------------------------------------|
A:----------------------------------------|
F:----------------------------------------|
C:---3-0--3-0--3-0--3-0--3-0--3-0---------|
G:---3-0--3-0--3-0--3-0--3-0--3-0---------|
C:---3-0--3-0--3-0--3-0--3-0--3-0---------|

(Chorus)
D:---------------------------------------------------------|
A:---------------------------------------------------------|
F:---------------------------------------------------------|
C:0000--9-9-9---0-0--9-9-9--0-0--9-9-9-9--0-0--1-1-1-------|
G:0000--9-9-9---0-0--9-9-9--0-0--9-9-9-9--0-0--1-1-1-------|
C:0000--9-9-9---0-0--9-9-9--0-0--9-9-9-9--0-0--1-1-1-------|

Open palm mute again

D:----------------------------------------|
A:----------------------------------------|
F:----------------------------------------|
C:---3-0--3-0--3-0--3-00-5-5-3-0----------|
G:---3-0--3-0--3-0--3-00-5-5-3-0----------|
C:---3-0--3-0--3-0--3-00-5-5-3-0----------|

D:-------------------------------------------|
A:-------------------------------------------|
F:--------9---------9---------9-------9------|
C:--------x---------x---------x-------x------|
G:--------7---------7---------7-------7------|
C:---0-0------0-00-------0-0-----0-00--------|


(final chorus)
D:---------------------------------------------------------|
A:---------------------------------------------------------|
F:---------------------------------------------------------|
C:0000--9-9-9---0-0--9-9-9--0-0--9-9-9-9--0-0--1-1-1-------|
G:0000--9-9-9---0-0--9-9-9--0-0--9-9-9-9--0-0--1-1-1-------|
C:0000--9-9-9---0-0--9-9-9--0-0--9-9-9-9--0-0--1-1-1-------|

The last bit is just open on C,G and C, I think.

have fun.

            
            
Suggest correction
Creating personal tab
Creating personal tab
You can edit any tab online and save it as your Personal.

You can edit, replace or remove any tab part or add personal notes – all changes will be seen only by you.

Personal tabs can be accessed anytime from any device, even offline.
Learn more »
Give kudos to tab author, rate the tab!
1 2 3 4 5
comments
print report bad tab
guest
You may want to rate the tab now too:
select rating
Wanna post a correction for this tab? Suggest correction