Oops, an error
Loading. Please wait.

Terminal Tab

version 1
version 1

Whole song

Interactive

1,888 views 3 this week
no commentswrite comment
1 2 3 4 5
please rate
add to favorites
launch autoscroll
font size
0
reset
how to read this tab
guitar tuner
Autoscroll
slow
fast
+/-
esc
set tempo
stop
Help us to improve Ultimate-Guitar.com Take our survey!
×
Author
Difficulty
Tuning
intermediate
C G C F A D
Band: Static-X
Song: Terminal
Album: Cult of Static
Tuning: Drop C

Well, this is my first tab. Not many people put Static-X tabs up on here so I thought 
even if my tab was inaccurate, nobody would notice. I'm going to try to work on the solo.


Legend:
. - Palm Mute
h - Hammer On
p - Pull Off
x - Mute

Intro
D|-----------------------------|
A|-----------------------------|
F|-----------------------------|
C|-10-10---12-----14-----12--10|
G|-------12--12-12--12-12--12--|
C|-----------------------------|

D|-----------------------------------|
A|-----------------------------------|
F|-----------------------------------|
C|-10-10---12-----14-----15--14h15p14|
G|-------12--12-12--12-12--12--------|
C|-----------------------------------|

D|-----------------------------|
A|-----------------------------|
F|-----------------------------|
C|-10-10---12-----14-----12--10|
G|-------12--12-12--12-12--12--|
C|-----------------------------|

D|-----------------------------------|
A|-----------------------------------|
F|-----------------------------------|
C|-10-10---12-----14-----15--14h15p14|
G|-------12--12-12--12-12--12--------|
C|-----------------------------------|

Verse
D|---------------------------------------------------------|
A|---------------------------------------------------------|
F|---------------------------------------------------------|
C|---------------------------------------------------------|
G|0-0--0-0-0--0-0-0--0-0-0--0-1-1-1--1-1-1--1-1-1--1-1-1--1|
C|0-0--0-0-0--0-0-0--0-0-0--0-1-1-1--1-1-1--1-1-1--1-1-1--1| x4
     ..     ..     ..     ..       ..     ..     ..     ..
D|--------------------------------------------------------|
A|--------------------------------------------------------|
F|--------------------------------------------------------|
C|--------------------------------------------------------|
G|0-0-0--0-0-0--0-0-0--0-0-0--0-1-1-1--1-1-1--1-1-1--1-1-1|
C|0-0-0--0-0-0--0-0-0--0-0-0--0-1-1-1--1-1-1--1-1-1--1-1-1| x4
       ..     ..     ..     ..       ..     ..     ..

On the 1x part, when you play the muted strings, you want to mute the C and G strings on 
very 1st fret. A lot of heavy metal bands use this to create a heavy "thump" kind of 
If you mute it any higher, the sound won't be as heavy.

D|-----------------------------------------------------|
A|-----------------------------------------------------|
F|-----------------------------------------------------|
C|-----------------------------------------------------|
G|0--1--0--1--0--1--0--1--0--1--0--1--0--1--1x-1x-1x-1x|
C|0--1--0--1--0--1--0--1--0--1--0--1--0--1--1x-1x-1x-1x|

D|-----------------------------------------------------|
A|-----------------------------------------------------|
F|-----------------------------------------------------|
C|-----------------------------------------------------|
G|0--1--0--1--0--1--0--1--0--1--0--1--0--1--1x-1x------|
C|0--1--0--1--0--1--0--1--0--1--0--1--0--1--1x-1x------|


D|-----------------------------|
A|-----------------------------|
F|-----------------------------|
C|-10-10---12-----14-----12--10|
G|-------12--12-12--12-12--12--|
C|-----------------------------|

D|-----------------------------------|
A|-----------------------------------|
F|-----------------------------------|
C|-10-10---12-----14-----15--14h15p14|
G|-------12--12-12--12-12--12--------|
C|-----------------------------------|

D|-----------------------------|
A|-----------------------------|
F|-----------------------------|
C|-10-10---12-----14-----12--10|
G|-------12--12-12--12-12--12--|
C|-----------------------------|

D|-----------------------------------|
A|-----------------------------------|
F|-----------------------------------|
C|-10-10---12-----14-----15--14h15p14|
G|-------12--12-12--12-12--12--------|
C|-----------------------------------|


D|-----------------------------------------------------|
A|-----------------------------------------------------|
F|-----------------------------------------------------|
C|-----------------------------------------------------|
G|0--1--0--1--0--1--0--1--0--1--0--1--0--1--1x-1x-1x-1x|
C|0--1--0--1--0--1--0--1--0--1--0--1--0--1--1x-1x-1x-1x|

D|-----------------------------------------------------|
A|-----------------------------------------------------|
F|-----------------------------------------------------|
C|-----------------------------------------------------|
G|0--1--0--1--0--1--0--1--0--1--0--1--0--1--1x-1x------|
C|0--1--0--1--0--1--0--1--0--1--0--1--0--1--1x-1x------|


D|-----------------------------|
A|-----------------------------|
F|-----------------------------|
C|-10-10---12-----14-----12--10|
G|-------12--12-12--12-12--12--|
C|-----------------------------|

D|-----------------------------------|
A|-----------------------------------|
F|-----------------------------------|
C|-10-10---12-----14-----15--14h15p14|
G|-------12--12-12--12-12--12--------|
C|-----------------------------------|

D|-----------------------------|
A|-----------------------------|
F|-----------------------------|
C|-10-10---12-----14-----12--10|
G|-------12--12-12--12-12--12--|
C|-----------------------------|

D|-----------------------------------|
A|-----------------------------------|
F|-----------------------------------|
C|-10-10---12-----14-----15--14h15p14|
G|-------12--12-12--12-12--12--------|
C|-----------------------------------|

Solo (Working on it)

Hope you like it.
Suggest correction
Give kudos to tab author, rate the tab!
1 2 3 4 5
comments
print report bad tab
guest
You may want to rate the tab now too:
select rating
Please do not post tabs as comments. Select "correction" instead!