Oops, an error
Loading. Please wait.
We have an official The Only tab made by UG professional guitarists. Check out the tab »
×
2,093 views 3 this week
no commentswrite comment
1 2 3 4 5
2 more votes to show rating
add to favorites
×
Save as Personal and add changes to this tab that will be seen only by you. Learn more ›
×
You can save this tab as Personal to edit and correct it or add notes. All changes will be seen only by you. Learn more »
launch autoscroll
font size
0
reset
guitar tuner
edit
Autoscroll
slow
fast
+/-
esc
set tempo
stop
Author
Difficulty
Static X - The Only tabed for you in 3 ways :-D RATE ME ON THIS ONE
 

Finger Picking sound better

Key

 *  = you figure out how many times to play the note and when to switch.

(#) = this note can be played if you dont like going all the way up
      the neck.


#1. Drop C Format

    


Riff 1

      1st time          2nd time
f------------------|----------------|
c------------------|----------------|
g------(1)-(3)-(4)-|------(1)-------|
c-0*-3*-8*-10*-11*-|-0*-3*-8*-1*-3*-|


Riff 2

   1st time	   2nd time	
f---------------|-------------|
c---------------|-------------|
g---------------|-------------|
c-0*-3*-0*-3*-4-|-0*-3*-0*-3*-|


Riff 3

f----|
c----|
g----|
c-3*-|

Riff 4

f-----------------------------------------------------------------|
c-----------------------------------------------------------------|
g-----------------------------------------------------------------|
c-0h2-2-3p2-2--0h2-2-3p2-2-5--0h222-3p22-5--0h222-3p22-5--0h222-3-|

Riff 5

f--------------------|
c--------------------|
g--------------------|
c-0--00-00--0--00-00-|


Order
Riff 1 x1 intro
Riff 2 x1 verse 1
Riff 1 x1 chorus)
Riff 2 x1 verse 2
Riff 1 x1 chorus
Riff 3 x1 fill-in
Riff 1 x1 chorus
Riff 4 x1 Bridge
Riff 1 x2 2 choruses
Riff 3 x1 fill-in
Riff 5 x1 outro



#2. Standard Tuning Format:




Riff 1

      1st time          2nd time
g-----------------------|---------------------|
d----(1)--(6)--(8)--(9)-|----(1)--(6)-----(1)-|
a-3*--6*--11*--13*--14*-|-3*--6*--11*--4*--6*-|
e-----------------------|---------------------|


Riff 2

   1st time	   2nd time	
g----------------|-------------|
d---(1)---(1)-(2)|---(1)---(1)-|
a-3*-6*-3*-6*--7-|-3*-6*-3*-6*-|
e----------------|-------------|


Fill-in 1

g----|
d----|
a-3*-|
e----|

Riff 3

g-----------------------------------------------------------------|
d-----------------------------------------------------------------|
a-3h5-5-6p5-5--3h5-5-6p5-5-8--3h555-6p55-8--3h555-6p55-8--3h555-6-|
e-----------------------------------------------------------------|

Riff 4

g----------------------|
d----------------------|
a-33--33-33--33--33-33-|
e----------------------|

Order
Riff 1 x1 intro
Riff 2 x1 verse 1
Riff 1 x1 chorus
Riff 2 x1 verse 2
Riff 1 x1 chorus
Riff 3 x1 fill-in
Riff 1 x1 chorus
Riff 4 x1 Bridge
Riff 1 x2 2 choruses
Riff 3 x1 fill-in
Riff 5 x1 outro

----------------------------------------------------------------------
----------------------------------------------------------------------

3. 5-string Standard Tuning Format

   


Riff 1

      1st time          2nd time
g------------------|----------------|
d------------------|----------------|
a------------------|----------------|
e------(4)-(6)-(7)-|------(4)-------|
b-1*-4*-9*-11*-12*-|-1*-4*-9*-2*-4*-|

Riff 2

   1st time	   2nd time	
g---------------|-------------|
d---------------|-------------|
a---------------|-------------|
e------------(0)|-------------|
b-1*-4*-1*-4*-5-|-1*-4*-1*-4*-|

Riff 3

g----|
d----|
a----|
e----|
b-4*-|

Riff 4

g-----------------------------------------------------------------|
d-----------------------------------------------------------------|
a-----------------------------------------------------------------|
e-------------------------(1)-----------(1)-----------(1)---------|
b-1h3-3-4p3-3--1h3-3-4p3-3-6--1h333-4p33-6--1h333-4p33-6--1h333-4-|

Riff 5

g--------------------|
d--------------------|
a--------------------|
e--------------------|
b-1--11-11--1--11-11-|

Order
Riff 1 x1 intro
Riff 2 x1 verse 1
Riff 1 x1 chorus
Riff 2 x1 verse 2
Riff 1 x1 chorus
Riff 3 x1 fill-in
Riff 1 x1 chorus
Riff 4 x1 Bridge
Riff 1 x2 2 choruses
Riff 3 x1 fill-in
Riff 5 x1 outro

Suggest correction
Creating personal tab
Creating personal tab
You can edit any tab online and save it as your Personal.

You can edit, replace or remove any tab part or add personal notes – all changes will be seen only by you.

Personal tabs can be accessed anytime from any device, even offline.
Learn more »
Give kudos to tab author, rate the tab!
1 2 3 4 5
comments
print report bad tab
guest
You may want to rate the tab now too:
select rating
Wanna post a correction for this tab? Suggest correction