Oops, an error
Loading. Please wait.

The Only Tab

version 3
version 3
1,997 views 6 this week
3 commentsread comments
1 2 3 4 5
x 3
add to favorites
launch autoscroll
font size
0
reset
how to read this tab
guitar tuner
×
Best way to learn
"The Only"
Autoscroll
slow
fast
+/-
esc
set tempo
stop
hey everyone this is bryan....this is a really cool song from the new
album "Shadow Zone" i heard this song before it came out on the radio
from someone but anyway here is the tab....

it is in drop C

Intro

1st guitar 2 times
--------------
--------------
--------3--5--
--0--3--3--5--
--0--3--1--3-4
--0--3--------

2nd guitar 
---------------  \
---------------   \
--------3------    \        play only the first time        
--0--3--3--1---    /
--0--3--1--1---   /
--0--3-----1---  /

--------------------------------
--------------------------------
--14--14--14--14--14--14--14--14
---x---x---x---x---x---x---x---x
--12--12--12--12--12--12--12--12
--------------------------------

--------------------------------
--------------------------------
--12--12--12--12--12--12--12--12
---x---x---x---x---x---x---x---x
--10--10--10--10--10--10--10--10
--------------------------------

--------------------------------
--------------------------------
--10--10--10--10--10--10--10--10
---x---x---x---x---x---x---x---x
---8---8---8---8---8---8---8---8

----------------------------
----------------------------
--8--8--8--8--10--10--10--10
--x--x--x--x---x---x---x---x
--6--6--6--6---8---8---8---8
----------------------------

Verse 1 just guitar 2 repeat until the course starts

--10-10--------11-11---------12-12--------11-11
--------10-10---------10-10---------10-10------
-----------------------------------------------
-----------------------------------------------
-----------------------------------------------
-----------------------------------------------

Course 

1st guitar 2 times
--------------
--------------
--------3--5--
--0--3--3--5--
--0--3--1--3-4
--0--3--------

2nd guitar 
---------------  \
---------------   \
--------3------    \        play only the first time        
--0--3--3--1---    /
--0--3--1--1---   /
--0--3-----1---  /

--------------------------------
--------------------------------
--14--14--14--14--14--14--14--14
---x---x---x---x---x---x---x---x
--12--12--12--12--12--12--12--12
--------------------------------

--------------------------------
--------------------------------
--12--12--12--12--12--12--12--12
---x---x---x---x---x---x---x---x
--10--10--10--10--10--10--10--10
--------------------------------

--------------------------------
--------------------------------
--10--10--10--10--10--10--10--10
---x---x---x---x---x---x---x---x
---8---8---8---8---8---8---8---8

----------------------------
----------------------------
--8--8--8--8--10--10--10--10
--x--x--x--x---x---x---x---x
--6--6--6--6---8---8---8---8
----------------------------


Verse 2  just guitar 2 repeat until the course starts

--10-10--------11-11---------12-12--------11-11
--------10-10---------10-10---------10-10------
-----------------------------------------------
-----------------------------------------------
-----------------------------------------------
-----------------------------------------------

Course 

1st guitar 2 times
--------------
--------------
--------3--5--
--0--3--3--5--
--0--3--1--3-4
--0--3--------

2nd guitar 
---------------  \
---------------   \
--------3------    \        play only the first time        
--0--3--3--1---    /
--0--3--1--1---   /
--0--3-----1---  /

--------------------------------
--------------------------------
--14--14--14--14--14--14--14--14
---x---x---x---x---x---x---x---x
--12--12--12--12--12--12--12--12
--------------------------------

--------------------------------
--------------------------------
--12--12--12--12--12--12--12--12
---x---x---x---x---x---x---x---x
--10--10--10--10--10--10--10--10
--------------------------------

--------------------------------
--------------------------------
--10--10--10--10--10--10--10--10
---x---x---x---x---x---x---x---x
---8---8---8---8---8---8---8---8

----------------------------
----------------------------
--8--8--8--8--10--10--10--10
--x--x--x--x---x---x---x---x
--6--6--6--6---8---8---8---8
----------------------------

Bridge
1st guitar plays this
---------------------------------
---------------------------------
--------3--5----------3--5-------
--0--3--3--5----0--3--3--5-------
--0--3--1--3-4--0--3--1--3-4-----
--0--3----------0--3-------------

2nd guitar plays this

-----------------------
-----------------------
--7--10--9--5--10--9--3
--x---x--x--x---x--x--x
--5---8--7--3---8--7--1
-----------------------

------------------
------------------
--3--5--7--5--7--9
--x--x--x--x--x--x
--1--3--5--3--5--7
------------------

--------------------------------
--------------------------------
--14--14--14--14--14--14--14--14
---x---x---x---x---x---x---x---x
--12--12--12--12--12--12--12--12
--------------------------------

--------------------------------
--------------------------------
--12--12--12--12--12--12--12--12
---x---x---x---x---x---x---x---x
--10--10--10--10--10--10--10--10
--------------------------------

--------------------------------
--------------------------------
--10--10--10--10--10--10--10--10
---x---x---x---x---x---x---x---x
---8---8---8---8---8---8---8---8

----------------------------
----------------------------
--8--8--8--8--10--10--10--10
--x--x--x--x---x---x---x---x
--6--6--6--6---8---8---8---8
----------------------------

1st guitar only
--------------------          
--------------------          
--------------------           
--3-2-2-2--3-2-2-2-- (2x)      
--3-2-2-2--3-2-2-2--           
--3-2-2-2--3-2-2-2--   

 --------------------          
---------------------  (5x i think)
---------------------          
--3-2-2-2--3-2-2-2--3
--3-2-2-2--3-2-2-2---          
--3-2-2-2--3-2-2-2---  


Course (now play the whole course 2 times) 

1st guitar 2 times
--------------
--------------
--------3--5--
--0--3--3--5--
--0--3--1--3-4
--0--3--------

2nd guitar 
---------------  \
---------------   \
--------3------    \        play only the first time        
--0--3--3--1---    /
--0--3--1--1---   /
--0--3-----1---  /

--------------------------------
--------------------------------
--14--14--14--14--14--14--14--14
---x---x---x---x---x---x---x---x
--12--12--12--12--12--12--12--12
--------------------------------

--------------------------------
--------------------------------
--12--12--12--12--12--12--12--12
---x---x---x---x---x---x---x---x
--10--10--10--10--10--10--10--10
--------------------------------

--------------------------------
--------------------------------
--10--10--10--10--10--10--10--10
---x---x---x---x---x---x---x---x
---8---8---8---8---8---8---8---8

----------------------------
----------------------------
--8--8--8--8--10--10--10--10
--x--x--x--x---x---x---x---x
--6--6--6--6---8---8---8---8
----------------------------

Outro 
1st guitar
------------------------
------------------------
------------------------
--0--0-0-0-0--0--0-0-0-0
--0--0-0-0-0--0--0-0-0-0
--0--0-0-0-0--0--0-0-0-0

I can't really figure out the 2nd guitar part for the ending

well thats it i hope that it was clear enough....just listen for the rythem to
the song for 1st guitar espically....if you have any questions just e~mail me at
gotafatalwound@yahoo.com or send me an im at gotafatalwound...well until the next
song i come across later dudes
Suggest correction
Give kudos to tab author, rate the tab!
1 2 3 4 5
comments
print report bad tab
3 comments total.
0 reply
Ill NiNo fan 04 10 Feb 02, 2004 07:00 PM

hey i am the one that made this tab but when i put it on i forgot my password and name but anyway i put the verse up wrong...this is the correct version of the verse

--10-10--------12-12---------13-13-------
--------10-10---------10-10---------10-10
-----------------------------------------
-----------------------------------------
-----------------------------------------
-----------------------------------------

0 reply
BainsStatic 10 Feb 19, 2004 07:00 PM

could you pleeeease learn how to spell CHORUS... its CHORUS, not COURSE

0 reply
Ill NiNo fan 04 10 Apr 10, 2004 08:00 PM

ah well *** it i failed social studies

guest
You may want to rate the tab now too:
select rating
Wanna post a correction for this tab? Suggest correction