Oops, an error
Loading. Please wait.

The Only Tab

version 4
version 4
30,273 views 45 this week
15 commentsread comments
1 2 3 4 5
x 24
add to favorites
launch autoscroll
font size
0
reset
how to read this tab
guitar tuner
×
Best way to learn
"The Only"
Autoscroll
slow
fast
+/-
esc
set tempo
stop
Author
[Intro/Chorus]
(Guitar 1)
D|-------------------------------------------------------------------------|
A|-------------------------------------------------------------------------|
F|-------3--5-----14--------12-------10--------8------10-------------------|
C|-0--3--3--5------x-(x16)---x-(x16)--x-(x16)--x-(x8)--x-(x8)--------------|
G|-0--3--1--3--4--12--------10--------8--------6-------8-------------------|
C|-0--3--------------------------------------------------------------------|
                                                                         
(Guitar 2)                                                                 
D|-------------------------------------------------------------------------|
A|-------------------------------------------------------------------------|
F|-------------------------------------------------------------------------|
C|-0--3--8--10-----0---------3--------8--------1---------------------------|
G|-0--3--8--10-----0---------3--------8--------1---------------------------|
C|-0--3--8--10-11--0---------3--------8--------1--3------------------------|

[Verse]
(Guitar 1)
D|-10----12----13----12----------------------------------------------------|
A|----10----10----10----10--(x4)-------------------------------------------|
F|-------------------------------------------------------------------------|
C|-------------------------------------------------------------------------|
G|-------------------------------------------------------------------------|
C|-------------------------------------------------------------------------|

[Chorus]
(Guitar 1)
D|-------------------------------------------------------------------------|
A|-------------------------------------------------------------------------|
F|-------3--5-----14--------12-------10--------8------10-------------------|
C|-0--3--3--5------x-(x16)---x-(x16)--x-(x16)--x-(x8)--x-(x8)--------------|
G|-0--3--1--3--4--12--------10--------8--------6-------8-------------------|
C|-0--3--------------------------------------------------------------------|
                                                                         
(Guitar 2)                                                                 
D|-------------------------------------------------------------------------|
A|-------------------------------------------------------------------------|
F|-------------------------------------------------------------------------|
C|-0--3--8--10-----0---------3--------8--------1---------------------------|
G|-0--3--8--10-----0---------3--------8--------1---------------------------|
C|-0--3--8--10-11--0---------3--------8--------1--3------------------------|

[Verse]
(Guitar 1)
D|-10----12----13----12----------------------------------------------------|
A|----10----10----10----10--(x4)-------------------------------------------|
F|-------------------------------------------------------------------------|
C|-------------------------------------------------------------------------|
G|-------------------------------------------------------------------------|
C|-------------------------------------------------------------------------|

[Chorus]
(Guitar 1)
D|-------------------------------------------------------------------------|
A|-------------------------------------------------------------------------|
F|-------3--5-----14--------12-------10--------8------10-------------------|
C|-0--3--3--5------x-(x16)---x-(x16)--x-(x16)--x-(x8)--x-(x8)--------------|
G|-0--3--1--3--4--12--------10--------8--------6-------8-------------------|
C|-0--3--------------------------------------------------------------------|
                                                                         
(Guitar 2)                                                                 
D|-------------------------------------------------------------------------|
A|-------------------------------------------------------------------------|
F|-------------------------------------------------------------------------|
C|-0--3--8--10-----0---------3--------8--------1---------------------------|
G|-0--3--8--10-----0---------3--------8--------1---------------------------|
C|-0--3--8--10-11--0---------3--------8--------1--3------------------------|


[Solo]
(Guitar 1)
D|------------------------------------------------(x16)(x16)(x16)-(x8)-(x8)|
A|-------------------------------------------------------------------------|
F|-7--10-9-5--10-9----------------------------------14---12---10----8---10-|
C|-x---x-x-x---x-x-8-7-8-10-12--10-12-14--12-14-15---x----x----x----x----x-|
G|-5---8-7-3---8-7-8-7-8-10-12--10-12-14--12-14-15--12---10----8----6----8-|
C|-----------------8-7-8-10-12--10-12-14--12-14-15-------------------------|
                                                                         
(Guitar 2)                                                             
D|-------------------------------------------------------------------------|
A|-------------------------------------------------------------------------|
F|-------------------------------------------------------------------------|
C|-0------3-----8-----10--------0------3------1----------------------------|
G|-0------3-----8-----10--------0------3------1----------------------------|
C|-0------3-----8-----10--11----0------3------1--3-------------------------|

[Bridge]
(Guitars 1 & 2)
D|--------------|--------------------------|-------------------------------|
A|-(First Time)-|--------------------------|-(Last Time)-------------------|
F|--------------|--------------------------|-------------------------------|
C|-3-2-2--3-2-2-|-3-2-2--3-2-2-------------|---3-2-2-00--------------------|
G|-3-2-2--3-2-2-|-3-2-2--3-2-2-------(x4)--|---3-2-2-00--------------------|
C|-3-2-2--3-2-2-|-3-2-2--3-2-2--<3>--------|---3-2-2-00--------------------|
                                                     ..

[Chorus] (x2)
(Guitar 1)
D|-------------------------------------------------------------------------|
A|-------------------------------------------------------------------------|
F|-------3--5-----14--------12-------10--------8------10-------------------|
C|-0--3--3--5------x-(x16)---x-(x16)--x-(x16)--x-(x8)--x-(x8)--------------|
G|-0--3--1--3--4--12--------10--------8--------6-------8-------------------|
C|-0--3--------------------------------------------------------------------|
                                                                         
(Guitar 2)                                                                 
D|-------------------------------------------------------------------------|
A|-------------------------------------------------------------------------|
F|-------------------------------------------------------------------------|
C|-0--3--8--10-----0---------3--------8--------1---------------------------|
G|-0--3--8--10-----0---------3--------8--------1---------------------------|
C|-0--3--8--10-11--0---------3--------8--------1--3------------------------|



************************************

| x  Dead note
| (First Time) 
| (Last Time) 
| (x 
| )  
| )(x 
| <  
| >  

************************************
Suggest correction
comments
print report bad tab
15 comments total. Showing first comments.
0 reply
grasstain 110 Feb 27, 2005 07:00 PM

i acually think this tunning is B,F#,B,E,G#,C#

0 reply
Carl the Mo$her 52 Sep 02, 2006 03:50 AM

i think this is a great tab :D nice job

0 reply
-blaze- 148 Oct 17, 2006 10:19 PM

-----14--------12-------10--------8------10-----
------x-(x16)---x-(x16)--x-(x16)--x-(x8)--x-(x8)
-----12--------10--------8--------6-------8-----

what does the x represent guys?? i cant figure it out.. (x) i get but the 14 ??
x
12

guest
You may want to rate the tab now too:
select rating
Wanna post a correction for this tab? Suggest correction