Oops, an error
Loading. Please wait.

Wisconsin Death Trip Tab

version 1
version 1

Whole song

Interactive

422 views 1 this week
no commentswrite comment
1 2 3 4 5
x 5
add to favorites
launch autoscroll
font size
0
reset
how to read this tab
guitar tuner
×
Best way to learn
"Wisconsin Death Trip"
Autoscroll
slow
fast
+/-
esc
set tempo
stop
Author
Difficulty
Tuning
novice
C F A# D# G C
-----------------------------------------------------------------------------------------
                              STATIC-X - WISCONSIN DEATH TRIP
                             Album:  Wisconsin Death Trip (1999)
-----------------------------------------------------------------------------------------
                  Tabbed by: http://profile.ultimate-guitar.com/godspeedy/

               For questions and corrections feel free to send me a message:
                           https://www.facebook.com/Godspeedy14
                           
        Also, check out my Youtube channel: http://www.youtube.com/user/Godspeedy14

                                   Tuning: 6 string CFA#D#GC 

-----------------------------------------------------------------------------------------
                                     INTRO (00:00-00:14)
-----------------------------------------------------------------------------------------

Guitars 1 and 2 (w/ dist) (left hand on 4th fret muting the strings)

 C|-x---x-----------x---x--x---x---|
 G|-x---x-----------x---x--x---x---|
D#|-x---x-----------x---x--x---x---| x7
A#|-x---x-----------x---x--x---x---|
 F|-x---x-----------x---x--x---x---|
 C|-x---x-----------x---x--x---x---|

 C|-x---x-----------x---x--x-------|
 G|-x---x-----------x---x--x-------|
D#|-x---x-----------x---x--x-------|
A#|-x---x-----------x---x--x-------|
 F|-x---x-----------x---x--x-------|
 C|-x---x-----------x---x--x---0---|

-----------------------------------------------------------------------------------------
                                    VERSE (00:14-00:59)
-----------------------------------------------------------------------------------------

Guitars 1 and 2 (w/ dist)

 C|--------------------------------|
 G|--------------------------------|
D#|--------------------------------| x12
A#|--------------------------------|
 F|-7---7-----------7---7--7---7---|
 C|-5---0-----------5---0--5---0---|

 3 empty bars

 C|-------x--x--x--x--x--x--|
 G|-------x--x--x--x--x--x--|
D#|-------x--x--x--x--x--x--|  (left hand on 12th fret muting the strings)
A#|-------x--x--x--x--x--x--|
 F|-------x--x--x--x--x--x--|
 C|-------x--x--x--x--x--x--|

 C|--------------------------------|
 G|--------------------------------|
D#|--------------------------------| x8
A#|--------------------------------|
 F|-7---7-----------7---7--7---7---|
 C|-5---0-----------5---0--5---0---|

-----------------------------------------------------------------------------------------
                                    CHORUS (00:59-01:14)
-----------------------------------------------------------------------------------------

Guitars 1 and 2 (w/ dist)

 C|-----------------------------|
 G|-----------------------------|
D#|-----------------------------| x8
A#|-----------------------------|
 F|-8---7--------8---7--8---7---|
 C|-6---5--------6---5--6---5---|

-----------------------------------------------------------------------------------------
                                    VERSE 2 (01:14-01:36)
-----------------------------------------------------------------------------------------

Guitars 1 and 2 (w/ dist) (left hand on 4th fret muting the strings)

 C|-x---x-----------x---x--x---x---|
 G|-x---x-----------x---x--x---x---|
D#|-x---x-----------x---x--x---x---| x3
A#|-x---x-----------x---x--x---x---|
 F|-x---x-----------x---x--x---x---|
 C|-x---x-----------x---x--x---x---|

 C|-x---x-----------x---x--x-------|
 G|-x---x-----------x---x--x-------|
D#|-x---x-----------x---x--x-------|
A#|-x---x-----------x---x--x-------|
 F|-x---x-----------x---x--x-------|
 C|-x---x-----------x---x--x---0---|

 C|--------------------------------|
 G|--------------------------------|
D#|--------------------------------| x8
A#|--------------------------------|
 F|-7---7-----------7---7--7---7---|
 C|-5---0-----------5---0--5---0---|

-----------------------------------------------------------------------------------------
                                   CHORUS 2 (01:36-01:51)
-----------------------------------------------------------------------------------------

Guitars 1 and 2 (w/ dist)

 C|-----------------------------|
 G|-----------------------------|
D#|-----------------------------| x4
A#|-----------------------------|
 F|-8---7--------8---7--8---7---|
 C|-6---5--------6---5--6---5---|

 C|-----------------------------|
 G|-----------------------------|
D#|-----------------------------| x4
A#|-----------------------------| 
 F|-3---2--------3---2--3---2---|
 C|-1---0--------1---0--1---0---|

-----------------------------------------------------------------------------------------
                                     BRIDGE (01:51-2:24)
-----------------------------------------------------------------------------------------

I. Guitar 1 - 2 empty bars 

   Guitar 2 (w/ dist)

 C|-----------------------------------|
 G|-----------------------------------|
D#|-----------------------------------| x2
A#|-----------------------------------|
 F|-----------------------------------|
 C|-0---0---0---0--0---0---0--0---0---|
    *   *   *   *  *   *   *  *   *

II. Guitars 1 and 2 (w/ dist)

 C|-----------------------------------|
 G|-----------------------------------|
D#|-----------------------------------| x7
A#|-----------------------------------|
 F|-----------------------------------|
 C|-0---0---0---0--0---0---0--0---0---|
    *   *   *   *  *   *   *  *   *

 C|-12--12--12--12-12--12--12-12-12-12--|
 G|-------------------------------------|
D#|-------------------------------------|
A#|-------------------------------------|
 F|-------------------------------------|
 C|-------------------------------------|

 C|-----------------------------------|
 G|-----------------------------------|
D#|-----------------------------------| x8
A#|-----------------------------------|
 F|-----------------------------------|
 C|-0---0---0---0--0---0---0--0---0---|
    *   *   *   *  *   *   *  *   *
-----------------------------------------------------------------------------------------
                                   CHORUS 3 (02:24-02:39)
-----------------------------------------------------------------------------------------
                                      same as CHORUS
-----------------------------------------------------------------------------------------
                                    OUTRO (02:39-03:09)
-----------------------------------------------------------------------------------------

Guitars 1 and 2 (w/ dist)

 C|--------------------------------|
 G|--------------------------------|
D#|--------------------------------| x8
A#|--------------------------------|
 F|-7---7-----------7---7--7---7---|
 C|-5---0-----------5---0--5---0---|

 C|-----------------------------------|
 G|-----------------------------------|
D#|-----------------------------------| 
A#|-----------------------------------|
 F|-----------------------------------|
 C|-0---0---0---0--0---0---0--0---0---|
    *   *   *   *  *   *   *  *   *

 C|-----------------------------------|
 G|-----------------------------------|
D#|-----------------------------------|
A#|-2---------------------------------|
 F|-2---2---2---2--2---2---2--2---2---|
 C|-0---0---0---0--0---0---0--0---0---|
        *   *   *  *   *   *  *   *

************************************

| *   palm mute
| x   Mute note

************************************
Suggest correction
comments
print report bad tab
guest
You may want to rate the tab now too:
select rating
Wanna post a correction for this tab? Suggest correction