Oops, an error
Loading. Please wait.

Bad News tab

1,485 views 3 this week
no commentswrite comment
1 2 3 4 5
x 3
add to favorites
×
Save as Personal and add changes to this tab that will be seen only by you. Learn more ›
×
You can save this tab as Personal to edit and correct it or add notes. All changes will be seen only by you. Learn more »
launch autoscroll
font size
0
reset
how to read this tab
guitar tuner
edit
Autoscroll
slow
fast
+/-
esc
set tempo
stop
Bad News
Status Quo
In Search Of The Fourth Chord 2007


Crotchet=135 (approx.)


Capo on 2nd fret (chords relative to capo).

E|-----------------------------------|
B|---2---2---3---3---5---5---3-5-3---|
G|---2---2---2---2---0---0---2-2-2---|
D|---2---2---4---4---5---5---4-5-4---|
A|-0---0---0---0---0---0---0-------0-|
E|-----------------------------------|and so on

      A
I was born in the middle of nowhere

Found me in a sack

I never knew no love or affection
                                D
So I never let it held me back

A
Now the time has moved along

And I'm wiser as I'm older

Well balanced? That I am
                                        C
I've got a chip on each of my shoulders
C#5      D
I'm on a mission to spread the word
                            E5 F#5 G5 G#5 A
Of the meaning of the blues
                                 E
So watch out now, here's Johnny!


  G             A    
Believe I'm bad news
            E F F# G
Oh yes I am
            A
Oh yes I am


Solo 1 (No Capo) - 1:24
E|---------------------------------------|
B|-----------10b-10b~~-10-8-10p8---8-----|
G|-(9b)-rb-7---------------------9---9p7-|
D|---------------------------------------|
A|---------------------------------------|
E|---------------------------------------|

E|----------------------------------------------------------------------|
B|-/12-12-12-12-10----12-12-12-12-12p10----12p10----12p10----15b-15-12~-|
G|-----------------11-------------------11-------11-------11------------|
D|----------------------------------------------------------------------|
A|----------------------------------------------------------------------|
E|----------------------------------------------------------------------|


Slow Movement (With Capo)- 2:29

   Am7      Dadd11/A     D/A           Am7
E|------------------------------------------|
B|----1----------3----------3--5-3--------1-|
G|---0----------0----------2-------5p4---0--|
D|--2----------4----------4-------------2---|
A|-0----------0----------0-------------0----|
E|------------------------------------------|


  Blues scale riff - 3:19
E|------------------------------------------|
B|------------------------------------------|
G|------------------------------------------|
D|-7-5---------7-5---------7-5---------7-7--|
A|-----7-6-5-3-----7-6-5-3-----7-6-5-3------|
E|------------------------------------------|

Suggest correction
Creating personal tab
Creating personal tab
You can edit any tab online and save it as your Personal.

You can edit, replace or remove any tab part or add personal notes – all changes will be seen only by you.

Personal tabs can be accessed anytime from any device, even offline.
Learn more »
Give kudos to tab author, rate the tab!
1 2 3 4 5
comments
print report bad tab
guest
You may want to rate the tab now too:
select rating
Wanna post a correction for this tab? Suggest correction