Oops, an error
Loading. Please wait.

Caroline Tab

version 1
version 1

Whole song

Interactive

38,049 views 48 this week
1 commentread comment
1 2 3 4 5
x 6
add to favorites
launch autoscroll
font size
0
reset
how to read this tab
guitar tuner
×
Best way to learn
"Caroline"
Autoscroll
slow
fast
+/-
esc
set tempo
stop
Artist: Status Quo

Song:   Caroline

Tabbed by:      Michael Acheson

Guitar 1:

e|-------------------|
b|-------------------|
g|-------------------|
D|-------------------|
A|-15-17-15-17-15-17-|
E|-13-13-13-13-13-13-|  etc,etc.

This goes on for about eight or ten bars then:

Guitar 2:

e|-----------------|
b|-----------------|
g|---3-2---3-2-3-2-|
D|-3-----3---------|
A|-----------------|
E|-----------------|

The above times for then:

e|-----------------|
b|-----------------|
g|---3-1---3-1-3-1-|
D|-3-----3---------|
A|-----------------|
E|-----------------|

Then back to:

e|-----------------|
b|-----------------|
g|---3-2---3-2-3-2-|
D|-3-----3---------|
A|-----------------|
E|-----------------|

Then there's a little riff:

e|---------------------------------------------|
b|---------------------------------------------|
g|---3-2-3-5-3-2-1-0-0-0-0-0-1---3-2---3-2-3-2-|
D|-----------------------------3-----3---------|
A|---------------------------------------------|
E|---------------------------------------------|
Suggest correction
comments
print report bad tab
1 comment total.
+1 reply
rok&rollpenguin 10 Dec 10, 2006 04:34 AM

i think the first riff is this:
e----------------------------------------------------------------
b----------------------------------------------------------------
g----------------------------------------------------------------
d----------------------------------------------------------------
a-15-17-18-15-17-18----------------------------------------------
e-13-13-13-13-13-13----------------------------------------------

guest
You may want to rate the tab now too:
select rating
Wanna post a correction for this tab? Suggest correction