Oops, an error
Loading. Please wait.

Caroline tab

version 4
version 4

Whole song

Interactive

694 views 1 this week
no commentswrite comment
1 2 3 4 5
1 last vote to show rating
add to favorites
×
Save as Personal and add changes to this tab that will be seen only by you. Learn more ›
×
You can save this tab as Personal to edit and correct it or add notes. All changes will be seen only by you. Learn more »
launch autoscroll
font size
0
reset
how to read this tab
guitar tuner
backing track
0:00
0:00
edit
Autoscroll
slow
fast
+/-
esc
set tempo
stop
Author
Difficulty
CAROLINE

As recorded by Status Quo
(From the 1973 Album HELLO!)

Words and Music by Rossi & Young

Transcribed by Slowhand


Gtr I (E A D G B E) - 'Rick Parfitt - Electric Guitar'
Gtr II (E A D G B E) - 'Francis Rossi - Electric Guitar'


 Intro
  Q=152
  F5
 4/4
  Gtr I (El. Gtr. w/ light dist.)
   E  E  E  E  E  E  E  E    E  E  E  E  E  E  E  E
|-------------------------|-------------------------|
|-------------------------|-------------------------|
|-------------------------|-------------------------|
|-------------------------|-------------------------|
|-15-15-17-15-18-15-17-15-|-15-15-17-15-18-15-17-15-|
|-13-13-13-13-13-13-13-13-|-13-13-13-13-13-13-13-13-|


   E  E  E  E  E  E  E  E    E  E  E  E  E  E  E  E
|-------------------------|-------------------------|
|-------------------------|-------------------------|
|-------------------------|-------------------------|
|-------------------------|-------------------------|
|-15-15-17-15-18-15-17-15-|-15-15-17-15-18-15-17-15-|
|-13-13-13-13-13-13-13-13-|-13-13-13-13-13-13-13-13-|


     E  E  E  E  E  E  E  E    E   E  E  E  E  E  E  E
||--------------------------|--------------------------|
||o-------------------------|--------------------------|
||--------------------------|--------------------------|
||--------------------------|--------------------------|
||o-15-15-17-15-18-15-17-15-|-15--15-17-15-18-15-17-15-|
||--13-13-13-13-13-13-13-13-|-13--13-13-13-13-13-13-13-|
|
|   Gtr II (El. Gtr. w/ light dist.)
|    Q     Q     E  E  E  E   +E   E  Q     E  E  E  E
||--------------------------|--------------------------|
||o-------------------------|--------------------------|
||---------3-----2-----3--2-|-(2)-----3-----2-----3--2-|
||------------------3-------|------3-----------3-------|
||o-------------------------|--------------------------|
||--------------------------|--------------------------|


   E   E  E  E  E  E  E  E    E   E  E  E  E  E  E  E
|--------------------------|---------------------------||
|--------------------------|--------------------------o||
|--------------------------|---------------------------||
|--------------------------|---------------------------||
|-15--15-17-15-18-15-17-15-|-15--15-17-15-18-15-17-15-o||
|-13--13-13-13-13-13-13-13-|-13--13-13-13-13-13-13-13--||
|
| +E   E  Q     E  E  E  E   +E   E  Q     E  E  E  E
|--------------------------|---------------------------||
|--------------------------|--------------------------o||
|-(2)-----3-----2-----3--2-|-(2)-----3-----2-----3--2--||
|------3-----------3-------|------3-----------3--------||
|--------------------------|--------------------------o||
|--------------------------|---------------------------||


     E   E  E  E  E  E  E  E    E   E  E  E  E  E  E  E
||---------------------------|--------------------------|
||o--------------------------|--------------------------|
||---------------------------|--------------------------|
||---------------------------|--------------------------|
||o-15--15-17-15-18-15-17-15-|-15--15-17-15-18-15-17-15-|
||--13--13-13-13-13-13-13-13-|-13--13-13-13-13-13-13-13-|
|
|   +E   E  Q     E  E  E  E   +E   E  Q     E  E  E  E
||---------------------------|--------------------------|
||o--------------------------|--------------------------|
||--(2)-----3-----2-----3--2-|-(2)-----3-----2-----3--2-|
||-------3-----------3-------|------3-----------3-------|
||o--------------------------|--------------------------|
||---------------------------|--------------------------|


   E   E  E  E  E  E  E  E    E   E  E  E  E  E  E  E
|--------------------------|--------------------------|
|--------------------------|--------------------------|
|--------------------------|--------------------------|
|--------------------------|--------------------------|
|-15--15-17-15-18-15-17-15-|-15--15-17-15-18-15-17-15-|
|-13--13-13-13-13-13-13-13-|-13--13-13-13-13-13-13-13-|
|
| +E   E  Q     E  E  E  E   +E   E  Q     E  E  E  E
|--------------------------|--------------------------|
|--------------------------|--------------------------|
|-(2)-----3-----2-----3--2-|-(2)-----3-----2-----3--1-|
|------3-----------3-------|------3-----------3-------|
|--------------------------|--------------------------|
|--------------------------|--------------------------|


  Bb5
   E  E  E E  E E  E E    E  E  E E  E E  E E
|----------------------|----------------------|
|----------------------|----------------------|
|----------------------|----------------------|
|----------------------|----------------------|
|--8--8-10-8-11-8-10-8-|--8--8-10-8-11-8-10-8-|
|--6--6--6-6--6-6--6-6-|--6--6--6-6--6-6--6-6-|
|
| +E  E  Q    E E  E E   +E  E  Q    E E  E E
|----------------------|----------------------|
|----------------------|----------------------|
|-(1)----3----1----3-1-|-(1)----3----1----3-2-|
|-----3---------3------|-----3---------3------|
|----------------------|----------------------|
|----------------------|----------------------|


  F5
   E   E  E  E  E  E  E  E    E   E  E  E  E  E  E  E
|--------------------------|---------------------------|
|--------------------------|---------------------------|
|--------------------------|---------------------------|
|--------------------------|---------------------------|
|-15--15-17-15-18-15-17-15-|-15--15-17-15-18-15-17-15--|
|-13--13-13-13-13-13-13-13-|-13--13-13-13-13-13-13-13--|
|
| +E   E  Q     E  E  E  E   +E   E  Q     Q     E  E
|--------------------------|---------------------------|
|--------------------------|---------------------------|
|-(2)-----3-----2-----3--2-|-(2)-----3-----2-----3--2--|
|------3-----------3-------|------3--------------------|
|--------------------------|---------------------------|
|--------------------------|---------------------------|


  C5                        Bb5
   E  E  E  E  E  E  E  E   E E  E E  E E  E E
|-------------------------|--------------------|
|-------------------------|--------------------|
|-------------------------|--------------------|
|-------------------------|--------------------|
|-10-10-12-10-13-10-12-10-|-8-8-10-8-11-8-10-8-|
|--8--8--8--8--8--8--8--8-|-6-6--6-6--6-6--6-6-|
|
|  E  E  E  E  Q     E  E   E E  E E  Q    E E
|-------------------------|--------------------|
|-------------------------|--------------------|
|--5--3--2--0--2-----3--2-|-1-1--1-0-----------|
|-------------------------|-----------3----3-3-|
|-------------------------|--------------------|
|-------------------------|--------------------|


  F5
   E   E  E  E  E  E  E  E    E   E  E  E  E  E  E  E
|--------------------------|----------------------------||
|--------------------------|---------------------------o||
|--------------------------|----------------------------||
|--------------------------|----------------------------||
|-15--15-17-15-18-15-17-15-|-15--15-17-15-18-15-17-15--o||
|-13--13-13-13-13-13-13-13-|-13--13-13-13-13-13-13-13---||
|
| +E   E  Q     E  E  E  E   +E   E  Q     E  E  E  E
|--------------------------|----------------------------||
|--------------------------|---------------------------o||
|---------3-----2-----3--2-|-(2)-----3-----2-----3--2---||
|-(3)--3-----------3-------|------3-----------3---------||
|--------------------------|---------------------------o||
|--------------------------|----------------------------||


   1st & 3rd Verses
    F7
     E  e E  E  E  E  E  E    E  e E  E  E  E  E  E
||-----13------13----------|----13------13----------|
||o----13------13----------|----13------13----------|
||-----14------14----------|----14------14----------|
||-------------------------|------------------------|
||o-15----x-15----15-15-15-|-15----x-15----15-15-15-|
||--13----x-13----13-13-13-|-13----x-13----13-13-13-|
|
|    E  E E  E  E  E  E  E    E  E E  E  E  E  E  E
||-------------------------|------------------------|
||o------------------------|------------------------|
||-------------------------|------------------------|
||-------------------------|------------------------|
||o--3--3-5--3--3--3--5--3-|--3--3-5--3--3--3--5--3-|
||---1--1-1--1--1--1--1--1-|--1--1-1--1--1--1--1--1-|


  Bb7
  E e E E E E E E   E e E E E E E E
|---6-----6-------|---6-----6-------|
|---6-----6-------|---6-----6-------|
|---7-----7-------|---7-----7-------|
|-----------------|-----------------|
|-8---x-8---8-8-8-|-8---x-8---8-8-8-|
|-6---x-6---6-6-6-|-6---x-6---6-6-6-|
|
| E E E E E E E E   E E E E E E E E
|-----------------|-----------------|
|-----------------|-----------------|
|-----------------|-----------------|
|-3-3-5-3-3-3-5-3-|-3-3-5-3-3-3-5-3-|
|-1-1-1-1-1-1-1-1-|-1-1-1-1-1-1-1-1-|
|-----------------|-----------------|


  F7                       C7
   E  e E  E  E  E  E  E    E e E  E E  E  E  E
|----13------13----------|----8------8----------|
|----13------13----------|----8------8----------|
|----14------14----------|----9------9----------|
|------------------------|----------------------|
|-15----x-15----15-15-15-|-10---x-10---10-10-10-|
|-13----x-13----13-13-13-|--8---x--8----8--8--8-|
|
|  E  E E  E  E  E  E  E    E E E  E E  E  E  E
|------------------------|----------------------|
|------------------------|----------------------|
|------------------------|----------------------|
|------------------------|--5-5-7--5-5--5--7--5-|
|--3--3-5--3--3--3--5--3-|--3-3-3--3-3--3--3--3-|
|--1--1-1--1--1--1--1--1-|----------------------|


  F5                         C
   E  e E  E  E  E  E  E   E  E  E  E  E  E  E  E
|----13------13----------|-------------------------||
|----13------13----------|-------------------------||
|----14------14----------|----9--9--9--9--9--9--9--||
|------------------------|---10-10-10-10-10-10-10--||
|-15----x-15----15-15-15-|---10-10-10-10-10-10-10--||
|-13----x-13----13-13-13-|----8--8--8--8--8--8--8--||
|
|  E  E E  E  E  E  E  E   E  E  E  E  E  E  E  E
|------------------------|-------------------------||
|------------------------|-------------------------||
|------------------------|-------------------------||
|------------------------|----5--5--5--5--5--5--5--||
|--3--3-5--3--3--3--5--3-|----3--3--3--3--3--3--3--||
|--1--1-1--1--1--1--1--1-|-------------------------||


 2nd & 4th Verses
  F7
   E  e E  E  E  E  E  E    E  e E  E  E  E  E  E
|----13------13----------|----13------13----------|
|----13------13----------|----13------13----------|
|----14------14----------|----14------14----------|
|------------------------|------------------------|
|-15----x-15----15-15-15-|-15----x-15----15-15-15-|
|-13----x-13----13-13-13-|-13----x-13----13-13-13-|
|
|  E  E E  E  E  E  E  E    E  E E  E  E  E  E  E
|------------------------|------------------------|
|------------------------|------------------------|
|------------------------|------------------------|
|------------------------|------------------------|
|--3--3-5--3--3--3--5--3-|--3--3-5--3--3--3--5--3-|
|--1--1-1--1--1--1--1--1-|--1--1-1--1--1--1--1--1-|


  Bb7
  E e E E E E E E   E e E E E E E E
|---6-----6-------|---6-----6--------|
|---6-----6-------|---6-----6--------|
|---7-----7-------|---7-----7--------|
|-----------------|------------------|
|-8---x-8---8-8-8-|-8---x-8---8-8-8--|
|-6---x-6---6-6-6-|-6---x-6---6-6-6--|
|
| E E E E E E E E   E E E E E E E E
|-----------------|------------------|
|-----------------|------------------|
|-----------------|------------------|
|-3-3-5-3-3-3-5-3-|-3-3-5-3-3-3-5-3--|
|-1-1-1-1-1-1-1-1-|-1-1-1-1-1-1-1-1--|
|-----------------|------------------|


  F7                       C7
   E  e E  E  E  E  E  E    E e E  E E  E  E  E
|----13------13----------|----8------8----------|
|----13------13----------|----8------8----------|
|----14------14----------|----9------9----------|
|------------------------|----------------------|
|-15----x-15----15-15-15-|-10---x-10---10-10-10-|
|-13----x-13----13-13-13-|--8---x--8----8--8--8-|
|
|  E  E E  E  E  E  E  E    E E E  E E  E  E  E
|------------------------|----------------------|
|------------------------|----------------------|
|------------------------|----------------------|
|------------------------|--5-5-7--5-5--5--7--5-|
|--3--3-5--3--3--3--5--3-|--3-3-3--3-3--3--3--3-|
|--1--1-1--1--1--1--1--1-|----------------------|


  F7                         C
   E  e E  E  E  E  E  E   E  E  E  E  E  E  E  E
|----13------13----------|-------------------------||
|----13------13----------|-------------------------||
|----14------14----------|----9--9--9--9--9--9--9--||
|------------------------|---10-10-10-10-10-10-10--||
|-15----x-15----15-15-15-|---10-10-10-10-10-10-10--||
|-13----x-13----13-13-13-|----8--8--8--8--8--8--8--||
|
|  E  E E  E  E  E  E  E   E  E  E  E  E  E  E  E
|------------------------|-------------------------||
|------------------------|-------------------------||
|------------------------|-------------------------||
|------------------------|----5--5--5--5--5--5--5--||
|--3--3-5--3--3--3--5--3-|----3--3--3--3--3--3--3--||
|--1--1-1--1--1--1--1--1-|-------------------------||


 Chorus
  F5
  E E E E E E E E   E E E E E E E E   E E E E E E E E   E E E E E E E E
|-----------------|-----------------|-----------------|------------------|
|-----------------|-----------------|-----------------|------------------|
|-----------------|-----------------|-----------------|------------------|
|-3---3-3-3---3-3-|-3---3-3-3---3-3-|-3---3-3-3---3-3-|-3---3-3-3---3-3--|
|-3---5-3-3---5-3-|-3---5-3-3---5-3-|-3---5-3-3---5-3-|-3---5-3-3---5-3--|
|-0h1-1-1-0h1-1-1-|-0h1-1-1-0h1-1-1-|-0h1-1-1-0h1-1-1-|-0h1-1-1-0h1-1-1--|
|
| E E E E E E E E   E E E E E E E E   E E E E E E E E   E E E E E E E E
|-----------------|-----------------|-----------------|------------------|
|-----------------|-----------------|-----------------|------------------|
|-----------------|-----------------|-----------------|------------------|
|-----------------|-----------------|-----------------|------------------|
|-3---5-3-3---5-3-|-3---5-3-3---5-3-|-3---5-3-3---5-3-|-3---5-3-3---5-3--|
|-0h1-1-1-0h1-1-1-|-0h1-1-1-0h1-1-1-|-0h1-1-1-0h1-1-1-|-0h1-1-1-0h1-1-1--|


  Bb                                      F5
  E E  E E E E  E E   E E  E E E E  E E   E E E E E E E E   E E E E E E E E
|-------------------|-------------------|-----------------|------------------|
|-------------------|-------------------|-----------------|------------------|
|-7--------7--------|-7--------7--------|-----------------|------------------|
|-8--------8--------|-8--------8--------|-3---3-3-3---3-3-|-3---3-3-3---3-3--|
|-8-8-10-8-8-8-10-8-|-8-8-10-8-8-8-10-8-|-3---5-3-3---5-3-|-3---5-3-3---5-3--|
|-6-6--6-6-6-6--6-6-|-6-6--6-6-6-6--6-6-|-0h1-1-1-0h1-1-1-|-0h1-1-1-0h1-1-1--|
|
| E E  E E E E  E E   E E  E E E E  E E   E E E E E E E E   E E E E E E E E
|-------------------|-------------------|-----------------|------------------|
|-------------------|-------------------|-----------------|------------------|
|-------------------|-------------------|-----------------|------------------|
|-3-3--5-3-3-3--5-3-|-3-3--5-3-3-3--5-3-|-----------------|------------------|
|-1-1--1-1-1-1--1-1-|-1-1--1-1-1-1--1-1-|-3---5-3-3---5-3-|-3---5-3-3---5-3--|
|-------------------|-------------------|-0h1-1-1-0h1-1-1-|-0h1-1-1-0h1-1-1--|


  C                         Bb
   E  E  E  E  E  E  E  E   E E  E E E E  E E
|-------------------------|-------------------|
|-------------------------|-------------------|
|--9-----------9----------|-7--------7--------|
|-10----------10----------|-8--------8--------|
|-10-10-12-10-10-10-12-10-|-8-8-10-8-8-8-10-8-|
|--8--8--8--8--8--8--8--8-|-6-6--6-6-6-6--6-6-|
|
|  E  E  E  E  E  E  E  E   E E  E E E E  E E
|-------------------------|-------------------|
|-------------------------|-------------------|
|-------------------------|-------------------|
|--5--5--7--5--5--5--7--5-|-3-3--5-3-3-3--5-3-|
|--3--3--3--3--3--3--3--3-|-1-1--1-1-1-1--1-1-|
|-------------------------|-------------------|


  F5                  C
  E E E E E E E E   E  E  E  E  E  E  E  E
|-----------------|--------------------------||
|-----------------|-------------------------o||
|-----------------|----9--9--9--9--9--9--9---||
|-3---3-3-3---3-3-|---10-10-10-10-10-10-10---||
|-3---5-3-3---5-3-|---10-10-10-10-10-10-10--o||
|-0h1-1-1-0h1-1-1-|----8--8--8--8--8--8--8---||
|
| E E E E E E E E   E  E  E  E  E  E  E  E
|-----------------|--------------------------||
|-----------------|-------------------------o||
|-----------------|--------------------------||
|-----------------|----5--5--5--5--5--5--5---||
|-3---5-3-3---5-3-|----3--3--3--3--3--3--3--o||
|-0h1-1-1-0h1-1-1-|--------------------------||


 Interlude
  F5
   E  E  E  E  E  E  E  E    E   E  E  E  E  E  E  E
|-------------------------|--------------------------|
|-------------------------|--------------------------|
|-------------------------|--------------------------|
|-------------------------|--------------------------|
|-15-15-17-15-18-15-17-15-|-15--15-17-15-18-15-17-15-|
|-13-13-13-13-13-13-13-13-|-13--13-13-13-13-13-13-13-|
|
| Gtr II
|  E  E  Q     E  E  E  E   +E   E  Q     E  E  E  E
|-------------------------|--------------------------|
|-------------------------|--------------------------|
|--------3-----2-----3--2-|-(2)-----3-----2-----3--2-|
|--3--3-----------3-------|------3-----------3-------|
|-------------------------|--------------------------|
|-------------------------|--------------------------|


   E   E  E  E  E  E  E  E    E   E  E  E  E  E  E  E
|--------------------------|---------------------------|
|--------------------------|---------------------------|
|--------------------------|---------------------------|
|--------------------------|---------------------------|
|-15--15-17-15-18-15-17-15-|-15--15-17-15-18-15-17-15--|
|-13--13-13-13-13-13-13-13-|-13--13-13-13-13-13-13-13--|
|
| +E   E  Q     E  E  E  E   +E   E  Q     E  E  E  E
|--------------------------|---------------------------|
|--------------------------|---------------------------|
|-(2)-----3-----2-----3--2-|-(2)-----3-----2-----3--1--|
|------3-----------3-------|------3-----------3--------|
|--------------------------|---------------------------|
|--------------------------|---------------------------|


  Bb5
   E  E  E E  E E  E E    E  E  E E  E E  E E
|----------------------|----------------------|
|----------------------|----------------------|
|----------------------|----------------------|
|----------------------|----------------------|
|--8--8-10-8-11-8-10-8-|--8--8-10-8-11-8-10-8-|
|--6--6--6-6--6-6--6-6-|--6--6--6-6--6-6--6-6-|
|
| +E  E  Q    E E  E E   +E  E  Q    E E  E E
|----------------------|----------------------|
|----------------------|----------------------|
|-(1)----3----1----3-1-|-(1)----3----1----3-2-|
|-----3---------3------|-----3---------3------|
|----------------------|----------------------|
|----------------------|----------------------|


  F5
   E   E  E  E  E  E  E  E    E   E  E  E  E  E  E  E
|--------------------------|---------------------------|
|--------------------------|---------------------------|
|--------------------------|---------------------------|
|--------------------------|---------------------------|
|-15--15-17-15-18-15-17-15-|-15--15-17-15-18-15-17-15--|
|-13--13-13-13-13-13-13-13-|-13--13-13-13-13-13-13-13--|
|
| +E   E  Q     E  E  E  E   +E   E  Q     Q     E  E
|--------------------------|---------------------------|
|--------------------------|---------------------------|
|-(2)-----3-----2-----3--2-|-(2)-----3-----2-----3--2--|
|------3-----------3-------|------3--------------------|
|--------------------------|---------------------------|
|--------------------------|---------------------------|


  C5
   E  E  E  E  E  E  E  E   E E  E E  E E  E E
|-------------------------|--------------------|
|-------------------------|--------------------|
|-------------------------|--------------------|
|-------------------------|--------------------|
|-10-10-12-10-13-10-12-10-|-8-8-10-8-11-8-10-8-|
|--8--8--8--8--8--8--8--8-|-6-6--6-6--6-6--6-6-|
|
|  E  E  E  E  Q     E  E   E E  E E  Q    E E
|-------------------------|--------------------|
|-------------------------|--------------------|
|--5--3--2-----2-----3--2-|-1-1--1-0-----------|
|-----------5-------------|-----------3----3-3-|
|-------------------------|--------------------|
|-------------------------|--------------------|


  F5
   E   E  E  E  E  E  E  E    E   E  E  E  E  E  E  E
|--------------------------|---------------------------|
|--------------------------|---------------------------|
|--------------------------|---------------------------|
|--------------------------|---------------------------|
|-15--15-17-15-18-15-17-15-|-15--15-17-15-18-15-17-15--|
|-13--13-13-13-13-13-13-13-|-13--13-13-13-13-13-13-13--|
|
| +E   E  Q     E  E  E  E   +E   E  Q     E  E  E  E
|--------------------------|---------------------------|
|--------------------------|---------------------------|
|---------3-----2-----3--2-|-(2)-----3-----2-----3--2--|
|-(3)--3-----------3-------|------3-----------3--------|
|--------------------------|---------------------------|
|--------------------------|---------------------------|


   E  E  E  E  E  E  E  E    E  E  E  E  E  E  E  E
|-------------------------|-------------------------|
|-------------------------|-------------------------|
|-------------------------|-------------------------|
|-------------------------|-------------------------|
|-15-15-17-15-15-15-17-15-|-15-15-17-15-15-15-17-15-|
|-13-13-13-13-13-13-13-13-|-13-13-13-13-13-13-13-13-|
|
|  E  E  E  E  E  E  E  E    E  E  E  E  E  E  E  E
|-------------------------|-------------------------|
|-------------------------|-------------------------|
|-------------------------|-------------------------|
|-------------------------|-------------------------|
|--3--3--5--3--3--3--5--3-|--3--3--5--3--3--3--5--3-|
|--1--1--1--1--1--1--1--1-|--1--1--1--1--1--1--1--1-|


   E  E  E  E  E  E  E  E    E  E  E  E  E  E  E  E
|-------------------------|--------------------------||
|-------------------------|--------------------------||
|-------------------------|--------------------------||
|-------------------------|--------------------------||
|-15-15-17-15-15-15-17-15-|-15-15-17-15-15-15-17-15--||
|-13-13-13-13-13-13-13-13-|-13-13-13-13-13-13-13-13--||
|
|  E  E  E  E  E  E  E  E    E  E  E  E  E  E  E  E
|-------------------------|--------------------------||
|-------------------------|--------------------------||
|-------------------------|--------------------------||
|-------------------------|--------------------------||
|--3--3--5--3--3--3--5--3-|--3--3--5--3--3--3--5--3--||
|--1--1--1--1--1--1--1--1-|--1--1--1--1--1--1--1--1--||


 5th Verse
  F7
   E  e E  E  E  E  E  E    E  e E  E  E  E  E  E
|----13------13----------|----13------13----------|
|----13------13----------|----13------13----------|
|----14------14----------|----14------14----------|
|------------------------|------------------------|
|-15----x-15----15-15-15-|-15----x-15----15-15-15-|
|-13----x-13----13-13-13-|-13----x-13----13-13-13-|
|
|  E  E E  E  E  E  E  E    E  E E  E  E  E  E  E
|------------------------|------------------------|
|------------------------|------------------------|
|------------------------|------------------------|
|------------------------|------------------------|
|--3--3-5--3--3--3--5--3-|--3--3-5--3--3--3--5--3-|
|--1--1-1--1--1--1--1--1-|--1--1-1--1--1--1--1--1-|


  Bb7
  E e E E E E E E   E e E E E E E E
|---6-----6-------|---6-----6--------|
|---6-----6-------|---6-----6--------|
|---7-----7-------|---7-----7--------|
|-----------------|------------------|
|-8---x-8---8-8-8-|-8---x-8---8-8-8--|
|-6---x-6---6-6-6-|-6---x-6---6-6-6--|
|
| E E E E E E E E   E E E E E E E E
|-----------------|------------------|
|-----------------|------------------|
|-----------------|------------------|
|-3-3-5-3-3-3-5-3-|-3-3-5-3-3-3-5-3--|
|-1-1-1-1-1-1-1-1-|-1-1-1-1-1-1-1-1--|
|-----------------|------------------|


  F7                       C7
   E  e E  E  E  E  E  E    E e E  E E  E  E  E
|----13------13----------|----8------8----------|
|----13------13----------|----8------8----------|
|----14------14----------|----9------9----------|
|------------------------|----------------------|
|-15----x-15----15-15-15-|-10---x-10---10-10-10-|
|-13----x-13----13-13-13-|--8---x--8----8--8--8-|
|
|  E  E E  E  E  E  E  E    E E E  E E  E  E  E
|------------------------|----------------------|
|------------------------|----------------------|
|------------------------|----------------------|
|------------------------|--5-5-7--5-5--5--7--5-|
|--3--3-5--3--3--3--5--3-|--3-3-3--3-3--3--3--3-|
|--1--1-1--1--1--1--1--1-|----------------------|


  F7                         C
   E  e E  E  E  E  E  E   E  E  E  E  E  E  E  E
|----13------13----------|-------------------------||
|----13------13----------|-------------------------||
|----14------14----------|----9--9--9--9--9--9--9--||
|------------------------|---10-10-10-10-10-10-10--||
|-15----x-15----15-15-15-|---10-10-10-10-10-10-10--||
|-13----x-13----13-13-13-|----8--8--8--8--8--8--8--||
|
|  E  E E  E  E  E  E  E   E  E  E  E  E  E  E  E
|------------------------|-------------------------||
|------------------------|-------------------------||
|------------------------|-------------------------||
|------------------------|----5--5--5--5--5--5--5--||
|--3--3-5--3--3--3--5--3-|----3--3--3--3--3--3--3--||
|--1--1-1--1--1--1--1--1-|-------------------------||


 Chorus
  F5
  E E E E E E E E   E E E E E E E E   E E E E E E E E   E E E E E E E E
|-----------------|-----------------|-----------------|------------------|
|-----------------|-----------------|-----------------|------------------|
|-----------------|-----------------|-----------------|------------------|
|-3---3-3-3---3-3-|-3---3-3-3---3-3-|-3---3-3-3---3-3-|-3---3-3-3---3-3--|
|-3---5-3-3---5-3-|-3---5-3-3---5-3-|-3---5-3-3---5-3-|-3---5-3-3---5-3--|
|-0h1-1-1-0h1-1-1-|-0h1-1-1-0h1-1-1-|-0h1-1-1-0h1-1-1-|-0h1-1-1-0h1-1-1--|
|
| E E E E E E E E   E E E E E E E E   E E E E E E E E   E E E E E E E E
|-----------------|-----------------|-----------------|------------------|
|-----------------|-----------------|-----------------|------------------|
|-----------------|-----------------|-----------------|------------------|
|-----------------|-----------------|-----------------|------------------|
|-3---5-3-3---5-3-|-3---5-3-3---5-3-|-3---5-3-3---5-3-|-3---5-3-3---5-3--|
|-0h1-1-1-0h1-1-1-|-0h1-1-1-0h1-1-1-|-0h1-1-1-0h1-1-1-|-0h1-1-1-0h1-1-1--|


  Bb                                      F5
  E E  E E E E  E E   E E  E E E E  E E   E E E E E E E E   E E E E E E E E
|-------------------|-------------------|-----------------|------------------|
|-------------------|-------------------|-----------------|------------------|
|-7--------7--------|-7--------7--------|-----------------|------------------|
|-8--------8--------|-8--------8--------|-3---3-3-3---3-3-|-3---3-3-3---3-3--|
|-8-8-10-8-8-8-10-8-|-8-8-10-8-8-8-10-8-|-3---5-3-3---5-3-|-3---5-3-3---5-3--|
|-6-6--6-6-6-6--6-6-|-6-6--6-6-6-6--6-6-|-0h1-1-1-0h1-1-1-|-0h1-1-1-0h1-1-1--|
|
| E E  E E E E  E E   E E  E E E E  E E   E E E E E E E E   E E E E E E E E
|-------------------|-------------------|-----------------|------------------|
|-------------------|-------------------|-----------------|------------------|
|-------------------|-------------------|-----------------|------------------|
|-3-3--5-3-3-3--5-3-|-3-3--5-3-3-3--5-3-|-----------------|------------------|
|-1-1--1-1-1-1--1-1-|-1-1--1-1-1-1--1-1-|-3---5-3-3---5-3-|-3---5-3-3---5-3--|
|-------------------|-------------------|-0h1-1-1-0h1-1-1-|-0h1-1-1-0h1-1-1--|


  C                         Bb
   E  E  E  E  E  E  E  E   E E  E E E E  E E
|-------------------------|-------------------|
|-------------------------|-------------------|
|--9-----------9----------|-7--------7--------|
|-10----------10----------|-8--------8--------|
|-10-10-12-10-10-10-12-10-|-8-8-10-8-8-8-10-8-|
|--8--8--8--8--8--8--8--8-|-6-6--6-6-6-6--6-6-|
|
|  E  E  E  E  E  E  E  E   E E  E E E E  E E
|-------------------------|-------------------|
|-------------------------|-------------------|
|-------------------------|-------------------|
|--5--5--7--5--5--5--7--5-|-3-3--5-3-3-3--5-3-|
|--3--3--3--3--3--3--3--3-|-1-1--1-1-1-1--1-1-|
|-------------------------|-------------------|


  F5                  C
  E E E E E E E E   E  E  E  E  E  E  E  E
|-----------------|-------------------------||
|-----------------|-------------------------||
|-----------------|----9--9--9--9--9--9--9--||
|-3---3-3-3---3-3-|---10-10-10-10-10-10-10--||
|-3---5-3-3---5-3-|---10-10-10-10-10-10-10--||
|-0h1-1-1-0h1-1-1-|----8--8--8--8--8--8--8--||
|
| E E E E E E E E   E  E  E  E  E  E  E  E
|-----------------|-------------------------||
|-----------------|-------------------------||
|-----------------|-------------------------||
|-----------------|----5--5--5--5--5--5--5--||
|-3---5-3-3---5-3-|----3--3--3--3--3--3--3--||
|-0h1-1-1-0h1-1-1-|-------------------------||


 Soft Interlude
  F7
  Gtr I
   PM-----------------------------------------------
   E  E E  E  E  E  E  E    E   E E  E  E  E  E  E
|------------------------|-------------------------|
|----13------13----------|-----13------13----------|
|----14------14----------|-----14------14----------|
|------------------------|-------------------------|
|-15----x-15----15-15-15-|-15-----x-15----15-15-15-|
|-13----x-13----13-13-13-|-13-----x-13----13-13-13-|
|
| Gtr II
|  E  E Q     E  E  E  E   +E   E Q     E  E  E  E
|------------------------|-------------------------|
|------------------------|-------------------------|
|-------3-----2-----3--2-|-(2)----3-----2-----3--2-|
|-----3----------3-------|------3----------3-------|
|------------------------|-------------------------|
|------------------------|-------------------------|


 ------------------------------------------------|
   E   E E  E  E  E  E  E    E   E E  E  E  E  E  E
|-------------------------|--------------------------|
|-----13------13----------|-----13------13-----------|
|-----14------14----------|-----14------14-----------|
|-------------------------|--------------------------|
|-15-----x-15----15-15-15-|-15-----x-15----15-15-15--|
|-13-----x-13----13-13-13-|-13-----x-13----13-13-13--|
|
| +E   E Q     E  E  E  E   +E   E Q     E  E  E  E
|-------------------------|--------------------------|
|-------------------------|--------------------------|
|-(2)----3-----2-----3--2-|-(2)----3-----2-----3--1--|
|------3----------3-------|------3----------3--------|
|-------------------------|--------------------------|
|-------------------------|--------------------------|


  Bb7
   PM------------------------------------
   E  e E E E E E E    E  e E E E E E E
|-------------------|-------------------|
|-----6-----6-------|-----6-----6-------|
|-----7-----7-------|-----7-----7-------|
|-----6-----6-------|-----6-----6-------|
|--8----x-8---8-8-8-|--8----x-8---8-8-8-|
|--6----x-6---6-6-6-|--6----x-6---6-6-6-|
|
| +E  E Q   E E E E   +E  E Q   E E E E
|-------------------|-------------------|
|-------------------|-------------------|
|-(1)---3---1---3-1-|-(1)---3---1---3-2-|
|-----3-------3-----|-----3-------3-----|
|-------------------|-------------------|
|-------------------|-------------------|


  F7
 ------------------------------------------------|
   E   E E  E  E  E  E  E    E   E E  E  E  E  E  E
|-------------------------|--------------------------|
|-----13------13----------|-----13------13-----------|
|-----14------14----------|-----14------14-----------|
|-------------------------|--------------------------|
|-15-----x-15----15-15-15-|-15-----x-15----15-15-15--|
|-13-----x-13----13-13-13-|-13-----x-13----13-13-13--|
|
| +E   E Q     E  E  E  E   +E   E Q     Q     E  E
|-------------------------|--------------------------|
|-------------------------|--------------------------|
|-(2)----3-----2-----3--2-|-(2)----3-----2-----3--2--|
|------3----------3-------|------3-------------------|
|-------------------------|--------------------------|
|-------------------------|--------------------------|


  C7                     Bb7
   PM-------------------------------------
   E e E  E E  E  E  E   E e E E E E E E
|----------------------|-----------------|
|----8------8----------|---6-----6-------|
|----9------9----------|---7-----7-------|
|----8------8----------|---6-----6-------|
|-10---x-10---10-10-10-|-8---x-8---8-8-8-|
|--8---x--8----8--8--8-|-6---x-6---6-6-6-|
|
|  E E E  E Q     E  E   E E E E Q   E E
|----------------------|-----------------|
|----------------------|-----------------|
|--5-3-2--0-2-----3--2-|-1-1-1-0---------|
|----------------------|---------3---3-3-|
|----------------------|-----------------|
|----------------------|-----------------|


  F7
 ------------------------------------------------|
   E   E E  E  E  E  E  E    E   E E  E  E  E  E  E
|-------------------------|--------------------------||
|-----13------13----------|-----13------13-----------||
|-----14------14----------|-----14------14-----------||
|-------------------------|--------------------------||
|-15-----x-15----15-15-15-|-15-----x-15----15-15-15--||
|-13-----x-13----13-13-13-|-13-----x-13----13-13-13--||
|
| +E   E Q     E  E  E  E   +E   E Q     E  E  E  E
|-------------------------|--------------------------||
|-------------------------|--------------------------||
|--------3-----2-----3--2-|-(2)----3-----2-----3--2--||
|-(3)--3----------3-------|------3----------3--------||
|-------------------------|--------------------------||
|-------------------------|--------------------------||


   Outro
    F5
     E  E  E  E  E  E  E  E    E   E  E  E  E  E  E  E
||--------------------------|--------------------------|
||o-------------------------|--------------------------|
||--------------------------|--------------------------|
||--------------------------|--------------------------|
||o-15-15-17-15-18-15-17-15-|-15--15-17-15-18-15-17-15-|
||--13-13-13-13-13-13-13-13-|-13--13-13-13-13-13-13-13-|
|
|    E  E  Q     E  E  E  E   +E   E  Q     E  E  E  E
||--------------------------|--------------------------|
||o-------------------------|--------------------------|
||---2-----3-----2-----3--2-|-(2)-----3-----2-----3--2-|
||------3-----------3-------|------3-----------3-------|
||o-------------------------|--------------------------|
||--------------------------|--------------------------|


   E   E  E  E  E  E  E  E    E   E  E  E  E  E  E  E
|--------------------------|--------------------------|
|--------------------------|--------------------------|
|--------------------------|--------------------------|
|--------------------------|--------------------------|
|-15--15-17-15-18-15-17-15-|-15--15-17-15-18-15-17-15-|
|-13--13-13-13-13-13-13-13-|-13--13-13-13-13-13-13-13-|
|
| +E   E  Q     E  E  E  E   +E   E  Q     E  E  E  E
|--------------------------|--------------------------|
|--------------------------|--------------------------|
|-(2)-----3-----2-----3--2-|-(2)-----3-----2-----3--1-|
|------3-----------3-------|------3-----------3-------|
|--------------------------|--------------------------|
|--------------------------|--------------------------|


  Bb5
   E  E  E E  E E  E E    E  E  E E  E E  E E
|----------------------|----------------------|
|----------------------|----------------------|
|----------------------|----------------------|
|----------------------|----------------------|
|--8--8-10-8-11-8-10-8-|--8--8-10-8-11-8-10-8-|
|--6--6--6-6--6-6--6-6-|--6--6--6-6--6-6--6-6-|
|
| +E  E  Q    E E  E E   +E  E  Q    E E  E E
|----------------------|----------------------|
|----------------------|----------------------|
|-(1)----3----1----3-1-|-(1)----3----1----3-2-|
|-----3---------3------|-----3---------3------|
|----------------------|----------------------|
|----------------------|----------------------|


  F5
   E   E  E  E  E  E  E  E    E   E  E  E  E  E  E  E
|--------------------------|---------------------------|
|--------------------------|---------------------------|
|--------------------------|---------------------------|
|--------------------------|---------------------------|
|-15--15-17-15-18-15-17-15-|-15--15-17-15-18-15-17-15--|
|-13--13-13-13-13-13-13-13-|-13--13-13-13-13-13-13-13--|
|
| +E   E  Q     E  E  E  E   +E   E  Q     Q     E  E
|--------------------------|---------------------------|
|--------------------------|---------------------------|
|-(2)-----3-----2-----3--2-|-(2)-----3-----2-----3--2--|
|------3-----------3-------|------3--------------------|
|--------------------------|---------------------------|
|--------------------------|---------------------------|


  1.
  C5                        Bb5
   E  E  E  E  E  E  E  E   E E  E E  E E  E E
|-------------------------|--------------------|
|-------------------------|--------------------|
|-------------------------|--------------------|
|-------------------------|--------------------|
|-10-10-12-10-13-10-12-10-|-8-8-10-8-11-8-10-8-|
|--8--8--8--8--8--8--8--8-|-6-6--6-6--6-6--6-6-|
|
|  E  E  E  E  Q     E  E   E E  E E  Q    E E
|-------------------------|--------------------|
|-------------------------|--------------------|
|--5--3--2--0--2-----3--2-|-1-1--1-0-----------|
|-------------------------|-----------3----3-3-|
|-------------------------|--------------------|
|-------------------------|--------------------|


  F5
   E   E  E  E  E  E  E  E    E   E  E  E  E  E  E  E
|--------------------------|----------------------------||
|--------------------------|---------------------------o||
|--------------------------|----------------------------||
|--------------------------|----------------------------||
|-15--15-17-15-18-15-17-15-|-15--15-17-15-18-15-17-15--o||
|-13--13-13-13-13-13-13-13-|-13--13-13-13-13-13-13-13---||
|
| +E   E  Q     E  E  E  E   +E   E  Q     E  E  E  E
|--------------------------|----------------------------||
|--------------------------|---------------------------o||
|---------3-----2-----3--2-|-(2)-----3-----2-----3--2---||
|-(3)--3-----------3-------|------3-----------3---------||
|--------------------------|---------------------------o||
|--------------------------|----------------------------||


  2.
  C5                        Bb5
   E  E  E  E  E  E  E  E   E E  E E  E E  E E
|-------------------------|--------------------|
|-------------------------|--------------------|
|-------------------------|--------------------|
|-------------------------|--------------------|
|-10-10-12-10-13-10-12-10-|-8-8-10-8-11-8-10-8-|
|--8--8--8--8--8--8--8--8-|-6-6--6-6--6-6--6-6-|
|
|  E  E  E  E  Q     E  E   E E  E E  Q    E E
|-------------------------|--------------------|
|-------------------------|--------------------|
|--5--3--2--0--2-----3--2-|-1-1--1-0-----------|
|-------------------------|-----------3----3-3-|
|-------------------------|--------------------|
|-------------------------|--------------------|


  F5     G#5     G5    F#5        Eb5E5 F5
   E   E  E  +E   E  E  E  E    E  E  E  E  +H        +W
|----------------------------|---------------------|---------*|
|----------------------------|---------------------|---------*|
|----------------------------|---------------------|---------*|
|----------------------------|---------------------|---------*|
|-15--15-18-(18)-17-17-16-16-|-15-13-14-15-(15)----|-(15)----*|
|-13--13-16-(16)-15-15-14-14-|-13-11-12-13-(13)----|-(13)----*|
|
| +E   E  Q       E  E  Q       E  E  E  E  +H        +W
|----------------------------|---------------------|---------*|
|----------------------------|---------------------|---------*|
|---------3-------2-----3----|--2-----3--2--(2)----|--(2)----*|
|-(3)--3-------------3-------|-----3---------------|---------*|
|----------------------------|---------------------|---------*|
|----------------------------|---------------------|---------*|


Duration Legend
---------------
W - whole; H - half; Q - quarter; E - 8th; S - 16th; T - 32nd; X - 64th; a - acciaccatura
+ - note tied to previous; . - note dotted; .. - note double dotted
Uncapitalized letters represent notes that are staccato (1/2 duration)
Irregular groupings are notated above the duration line
Duration letters will always appear directly above the note/fret number it represents the
duration for.  Duration letters with no fret number below them represent rests.  Multi-
bar rests are notated in the form Wxn, where n is the number of bars to rest for.  Low
melody durations appear below the staff

Tablature Legend
----------------
 h   - hammer-on
 p   - pull-off
 b   - bend
 pb  - pre-bend
 r   - bend release (if no number after the r, then release immediately)
 /\  - slide into or out of (from/to "nowhere")
 s   - legato slide
 S   - shift slide
  - natural harmonic
[n]  - artificial harmonic
n(n) - tapped harmonic
 ~   - vibrato
 tr  - trill
 T   - tap
 TP  - trem. picking
 PM  - palm muting
\n/  - tremolo bar dip; n = amount to dip
 \n  - tremolo bar down
 n/  - tremolo bar up
/n\  - tremolo bar inverted dip
 =   - hold bend; also acts as connecting device for hammers/pulls
 <>  - volume swell (louder/softer)
 x   - on rhythm slash represents muted slash
 o   - on rhythm slash represents single note slash

Misc Legend
-----------
 |  - bar
||  - double bar
||o - repeat start
o|| - repeat end
*|  - double bar (ending)
 :  - bar (freetime)
 $  - Segno
 &  - Coda
Tempo markers -  = BPM(8/16=s8/s16), where s8 = swing 8ths, s16 = swing 16ths




If you want to turn me on to
Now anything you really want to
Turn me on to your love
Sweet love

If the night time is the right time
Oh anytime of yours is my time
We can find time for love
Sweet love

Come on sweet Caroline
You're my sweet Caroline
You know I wanna take ya
I really gotta make ya
Come on sweet Caroline
Take my hand, together we can rock'n'roll

When I'm thinking of you sleeping
I'm at home alone and weeping
Are you keeping your love
Sweet love

Do you still care when I'm not there
Now do you really wish I was there
Can I come there for love
Sweet love

Come on sweet Caroline
You're my sweet Caroline
You know I wanna take ya I really gotta make ya
Come on sweet Caroline
Take my hand, together we can rock'n'roll

If you want to turn me on to
Now anything you rally want to
Turn me on to your love
Sweet love

Come on sweet Caroline
You're my sweet Caroline
You know I wanna take ya
I really gotta make ya
Come on sweet Caroline
Take my hand, together we can rock'n'roll 


            
            
Suggest correction
Creating personal tab
Creating personal tab
You can edit any tab online and save it as your Personal.

You can edit, replace or remove any tab part or add personal notes – all changes will be seen only by you.

Personal tabs can be accessed anytime from any device, even offline.
Learn more »
Give kudos to tab author, rate the tab!
1 2 3 4 5
comments
print report bad tab
guest
You may want to rate the tab now too:
select rating
Wanna post a correction for this tab? Suggest correction