Oops, an error
Loading. Please wait.

In The Army Now tab

version 3
version 3

Whole song

Interactive

14,290 views 9 this week
1 commentread comment
1 2 3 4 5
x 3
add to favorites
×
Save as Personal and add changes to this tab that will be seen only by you. Learn more ›
×
You can save this tab as Personal to edit and correct it or add notes. All changes will be seen only by you. Learn more »
launch autoscroll
font size
0
reset
how to read this tab
guitar tuner
backing track
0:00
0:00
edit
Autoscroll
slow
fast
+/-
esc
set tempo
stop
Author
Difficulty
intermediate
[Intro]
(Palm muted Dm for 2 rounds, then)
(Keyboard)
   Dm    Am  Dm      C
e|-----5---|------10-8-|
B|-6-----8-|-10-8------|
G|---7-----|-----------|
D|---------|-----------|
A|---------|-----------|
E|---------|-----------|

[Lead Guitar]
   Dm     Am7  Dm     C
e|--------5--|----------|
B|--------8--|-10-8-6-5-|
G|-7-7-7--5--|----------|
D|-7-7-7--7--|----------|
A|-5-5-5-----|----------|
E|-----------|----------|

Dm
A vacation in a foreign land

Uncle Sam does the best he can
              Gm
You're in the army now
                      Dm
Oh, oh, you're in the army now
Dm
Now you remember what the draftsman said

Nothing to do all day but stay in bed
              Gm
You're in the army now
                      Dm
Oh, oh, you're in the army now
Dm
You'll be the hero of the neighborhood

Nobody knows that you've left for good
              Gm
You're in the army now
Am                     Dm
Oh, oh, you're in the army now
Dm
Smiling faces as you wave to land

But once you get there no one gives a damn
              Gm
You're in the army now
Am                    Dm
Oh, oh, you're in the army now

[Instrumental]
(Palm muted Dm for 2 rounds, then)
(Keyboard)
   Dm    Am  Dm      C
e|-----5---|------10-8-|
B|-6-----8-|-10-8------|
G|---7-----|-----------|
D|---------|-----------|
A|---------|-----------|
E|---------|-----------|

[Lead Guitar]
   Dm     Am7  Dm     C
e|--------5--|----------|
B|--------8--|-10-8-6-5-|
G|-7-7-7--5--|----------|
D|-7-7-7--7--|----------|
A|-5-5-5-----|----------|
E|-----------|----------|

Dm                                 (STOP)
Hand grenades flying over your head

[Key change - up a whole tone]
Em
Missiles flying over your head
If you wanna survive get out of bed
              Am
You're in the army now
Bm                    Am
Oh, oh, you're in the army now
Em
Shots ring out in the dead of night
                  (STOP)
The sergeant calls "Stand up and fight!"
              Am
You're in the army now
Bm                    Am
Oh, oh, you're in the army now
Em
You've got your orders better shoot on sight
Em
Your finger's on the trigger but it don't seem right
              Am
You're in the army now
Bm                    Em
Oh, oh, you're in the army now
              Am
You're in the army now
Bm                    Em
Oh, oh, you're in the army now

[Solo]
e|--------15-19-17-15-h17------------15-19-17-15-h17---------|
B|-----17-------------------------17-------------------------|
G|-/16------------------------/16--------------------14-b16~-|
D|-----------------------------------------------------------|
A|------------------------17\--------------------------------|
E|------------------------17\--------------------------------|

Em
Night is falling and you just can't see
Is this illusion or reality?
              Am
You're in the army now
Bm                    Em
Oh, oh, you're in the army now
              Am
You're in the army now
Bm                    Em
Oh, oh, you're in the army now

(Keyboard melody over second verse)
   Dm                  Gm         Am
e|-------------------------10--------10~-|
B|--------------10~-11--------11~-10-----|
G|-----9-10~-12--------12~---------------|
D|-12~-----------------------------------|
A|---------------------------------------|
E|---------------------------------------|

(Fill after)
"Smiling faces as you wave to land"
e|-10----------|
B|-13-b15~~~~~-|
G|-------------|
D|-------------|
A|-------------|
E|-------------|

[Outro Riff]
e|---------------------------|
B|------------------------12-|
G|-12-11-12-b14-r12-11-12----|
D|---------------------------|
A|---------------------------|
E|---------------------------|


************************************

| h  Hammer-on
| b  Bend
| /  Slide up
| ~  Vibrato
| \  Slide down
| r  Release

************************************

            
            
Suggest correction
Creating personal tab
Creating personal tab
You can edit any tab online and save it as your Personal.

You can edit, replace or remove any tab part or add personal notes – all changes will be seen only by you.

Personal tabs can be accessed anytime from any device, even offline.
Learn more »
Give kudos to tab author, rate the tab!
1 2 3 4 5
comments
print report bad tab
1 comment total.
0 reply
Greg Harper 3,932 Dec 20, 2007 09:01 AM

Intro Chords: Dm7, Am7 Dm, C.

7ths missing on verses and chorus'. Nice TAB though. Just watch the bends on the
solo.

guest
You may want to rate the tab now too:
select rating
Wanna post a correction for this tab? Suggest correction