Oops, an error
Loading. Please wait.

In The Army Now tab

version 4
version 4

Whole song

Interactive

358 views 12 this week
no commentswrite comment
1 2 3 4 5
3 more votes to show rating
add to favorites
×
Save as Personal and add changes to this tab that will be seen only by you. Learn more ›
×
You can save this tab as Personal to edit and correct it or add notes. All changes will be seen only by you. Learn more »
launch autoscroll
font size
0
reset
how to read this tab
guitar tuner
backing track
0:00
0:00
edit
Autoscroll
slow
fast
+/-
esc
set tempo
stop
Author
Difficulty
IN THE ARMY NOW

As recorded by Status Quo
(From the 1986 Album IN THE ARMY NOW)

Words and Music by Rob Bolland & Ferdi Bolland
Arranged by Status Quo

Transcribed by Slowhand


Gtr I (E A D G B E) - 'Rick Parfitt - Electric Guitar'
Gtr II (E A D G B E) - 'Franis Rossi - Electric Guitar'
Gtr III (E A D G B E) - 'Rick Parfitt - Electric Guitar'


 Intro
  Q=104
  D5                                  Dm      Am7
 4/4
  Gtr I (El. Gtr. w/ dist.)
  e e e e e e e e   e e e e e e e e   H.      Q
|-----------------|-----------------|-5-------5---|
|-----------------|-----------------|-6-------8---|
|-7-7-7-7-7-7-7-7-|-7-7-7-7-7-7-7-7-|-7-------5---|
|-7-7-7-7-7-7-7-7-|-7-7-7-7-7-7-7-7-|-7-------5---|
|-5-5-5-5-5-5-5-5-|-5-5-5-5-5-5-5-5-|-5-------7---|
|-----------------|-----------------|---------5---|


               Dm        C
  +W           Q  E E Q  Q    +W
|-(5)--------|----5------3--|-(3)----||
|-(8)--------|-6----8-6--5--|-(5)----||
|-(5)--------|-7---------5--|-(5)----||
|-(5)--------|-7---------5--|-(5)----||
|-(7)--------|-5---------3--|-(3)----||
|-(5)--------|--------------|--------||


   1st & 2nd Verses
    D5
    e e e e e e e e   e e e e e e e e   e e e e e e e e   e e e e e e e e
||------------------|-----------------|-----------------|------------------|
||o-----------------|-----------------|-----------------|------------------|
||--7-7-7-7-7-7-7-7-|-7-7-7-7-7-7-7-7-|-7-7-7-7-7-7-7-7-|-7-7-7-7-7-7-7-7--|
||--7-7-7-7-7-7-7-7-|-7-7-7-7-7-7-7-7-|-7-7-7-7-7-7-7-7-|-7-7-7-7-7-7-7-7--|
||o-5-5-5-5-5-5-5-5-|-5-5-5-5-5-5-5-5-|-5-5-5-5-5-5-5-5-|-5-5-5-5-5-5-5-5--|
||------------------|-----------------|-----------------|------------------|


  G5                                  D5
  e e e e e e e e   e e e e e e e e   e e e e e e e e   e e e e e e e e
|-----------------|-----------------|-----------------|------------------||
|-----------------|-----------------|-----------------|-----------------o||
|-----------------|-----------------|-7-7-7-7-7-7-7-7-|-7-7-7-7-7-7-7-7--||
|-5-5-5-5-5-5-5-5-|-5-5-5-5-5-5-5-5-|-7-7-7-7-7-7-7-7-|-7-7-7-7-7-7-7-7--||
|-5-5-5-5-5-5-5-5-|-5-5-5-5-5-5-5-5-|-5-5-5-5-5-5-5-5-|-5-5-5-5-5-5-5-5-o||
|-3-3-3-3-3-3-3-3-|-3-3-3-3-3-3-3-3-|-----------------|------------------||


   3rd & 4th Verses
    D5
    e e e e e e e e   e e e e e e     e e
||------------------|---------------------|
||o-----------------|---------------------|
||--7-7-7-7-7-7-7-7-|-7-7-7-7-7-7-----7-7-|
||--7-7-7-7-7-7-7-7-|-7-7-7-7-7-7-----7-7-|
||o-5-5-5-5-5-5-5-5-|-5-5-5-5-5-5-----5-5-|
||------------------|---------------------|
|
|   Gtr II (El. Gtr. w/ dist.)
|                               ~~~~~~~~~~~
|   W                 H       E Q.
||------------------|-----------9b10======|
||o-----------------|---------------------|
||------------------|---------------------|
||------------------|---------------------|
||o-----------------|---------------------|
||------------------|---------------------|


   e  e e e e e e e    e    e e e e e e e
|-------------------|----------------------|
|-------------------|----------------------|
|--7--7-7-7-7-7-7-7-|--7----7-7-7-7-7-7-7--|
|--7--7-7-7-7-7-7-7-|--7----7-7-7-7-7-7-7--|
|--5--5-5-5-5-5-5-5-|--5----5-5-5-5-5-5-5--|
|-------------------|----------------------|
|
|                      |
|~~~~~~~~~~~~~~~~~~~~~~~~~~~
| +W                  +W
|-(9)---------------|-(9)r\----------------|
|-------------------|----------------------|
|-------------------|----------------------|
|-------------------|----------------------|
|-------------------|----------------------|
|-------------------|----------------------|


  G5                A5                D5
  e e e e e e e e   e e e e e e e e   e e e e e e e e   e e e e e e e e
|-----------------|-----------------|-----------------|------------------||
|-----------------|-----------------|-----------------|-----------------o||
|-----------------|-----------------|-7-7-7-7-7-7-7-7-|-7-7-7-7-7-7-7-7--||
|-5-5-5-5-5-5-5-5-|-7-7-7-7-7-7-7-7-|-7-7-7-7-7-7-7-7-|-7-7-7-7-7-7-7-7--||
|-5-5-5-5-5-5-5-5-|-7-7-7-7-7-7-7-7-|-5-5-5-5-5-5-5-5-|-5-5-5-5-5-5-5-5-o||
|-3-3-3-3-3-3-3-3-|-5-5-5-5-5-5-5-5-|-----------------|------------------||


 Interlude
  Dm      Am7               Dm        C
  H.      Q    +W           Q  E E Q  Q    +W
|-5-------5--|-(5)--------|----5------3--|-(3)----||
|-6-------8--|-(8)--------|-6----8-6--5--|-(5)----||
|-7-------5--|-(5)--------|-7---------5--|-(5)----||
|-7-------5--|-(5)--------|-7---------5--|-(5)----||
|-5-------7--|-(7)--------|-5---------3--|-(3)----||
|---------5--|-(5)--------|--------------|--------||


 Pre-Verse
  e e e e e e e e   e e e e e e e e   W
|-----------------|-----------------|------||
|-----------------|-----------------|------||
|-7-7-7-7-7-7-7-7-|-7-7-7-7-7-7-7-7-|------||
|-7-7-7-7-7-7-7-7-|-7-7-7-7-7-7-7-7-|------||
|-5-5-5-5-5-5-5-5-|-5-5-5-5-5-5-5-5-|------||
|-----------------|-----------------|------||


 5th Verse
  E5
  e e e e e e e e   e e e e e e e e   e e e e e e e e   e e e e e e e e
|-----------------|-----------------|-----------------|-----------------|
|-----------------|-----------------|-----------------|-----------------|
|-9-9-9-9-9-9-9-9-|-9-9-9-9-9-9-9-9-|-9-9-9-9-9-9-9-9-|-9-9-9-9-9-9-9-9-|
|-9-9-9-9-9-9-9-9-|-9-9-9-9-9-9-9-9-|-9-9-9-9-9-9-9-9-|-9-9-9-9-9-9-9-9-|
|-7-7-7-7-7-7-7-7-|-7-7-7-7-7-7-7-7-|-7-7-7-7-7-7-7-7-|-7-7-7-7-7-7-7-7-|
|-----------------|-----------------|-----------------|-----------------|


  A5                B5                E5
  e e e e e e e e   e e e e e e e e   e e e e e e e e   e e e e e e e e
|-----------------|-----------------|-----------------|-----------------||
|-----------------|-----------------|-----------------|-----------------||
|-----------------|-----------------|-9-9-9-9-9-9-9-9-|-9-9-9-9-9-9-9-9-||
|-7-7-7-7-7-7-7-7-|-9-9-9-9-9-9-9-9-|-9-9-9-9-9-9-9-9-|-9-9-9-9-9-9-9-9-||
|-7-7-7-7-7-7-7-7-|-9-9-9-9-9-9-9-9-|-7-7-7-7-7-7-7-7-|-7-7-7-7-7-7-7-7-||
|-5-5-5-5-5-5-5-5-|-7-7-7-7-7-7-7-7-|-----------------|-----------------||


 6th Verse
  Em7
  e  e   e e e e e e   e  e   e e e e e e   e  e   e e e e e e   W
|--------------------|--------------------|--------------------|------|
|--------------------|--------------------|--------------------|------|
|-9--9---9-9-9-9-9-9-|-9--9---9-9-9-9-9-9-|-9--9---9-9-9-9-9-9-|------|
|-9--9---9-9-9-9-9-9-|-9--9---9-9-9-9-9-9-|-9--9---9-9-9-9-9-9-|------|
|-7--7---7-7-7-7-7-7-|-7--7---7-7-7-7-7-7-|-7--7---7-7-7-7-7-7-|------|
|--------------------|--------------------|--------------------|------|
|
| Gtr III (Clean El. Gtr.)
| E.   S e e E e E e   E.   S e e E e e e   E.   S e e E e e E   W
|-7----7-7-7---7---7-|-7----7-7-7---7-7-7-|-7----7-7-7---7-7---|------|
|-8----8-8-8---8---8-|-8----8-8-8---8-8-8-|-8----8-8-8---8-8---|------|
|-7----7-7-7---7---7-|-7----7-7-7---7-7-7-|-7----7-7-7---7-7---|------|
|-9----9-9-9---9---9-|-9----9-9-9---9-9-9-|-9----9-9-9---9-9---|------|
|-7----7-7-7---7---7-|-7----7-7-7---7-7-7-|-7----7-7-7---7-7---|------|
|--------------------|--------------------|--------------------|------|


  Am7                  Bm7
  e  e   e e e e e e   e  e   e e e e e e
|--------------------|--------------------|
|--------------------|--------------------|
|--------------------|--------------------|
|-7--7---7-7-7-7-7-7-|-9--9---9-9-9-9-9-9-|
|-7--7---7-7-7-7-7-7-|-9--9---9-9-9-9-9-9-|
|-5--5---5-5-5-5-5-5-|-7--7---7-7-7-7-7-7-|
|
| E.   S e e E e e E   E.   S e e e e e e
|-5----5-5-5-x-5-5---|-7----7-7-7-7-7-7-7-|
|-5----5-5-5-x-5-5---|-7----7-7-7-7-7-7-7-|
|-5----5-5-5-x-5-5---|-7----7-7-7-7-7-7-7-|
|-5----5-5-5-x-5-5---|-7----7-7-7-7-7-7-7-|
|-7----7-7-7-x-7-7---|-9----9-9-9-9-9-9-9-|
|-5----5-5-5-x-5-5---|-7----7-7-7-7-7-7-7-|


  Em7
  e  e   e e e e e e   e  e   e e e e e e
|--------------------|--------------------||
|--------------------|--------------------||
|-9--9---9-9-9-9-9-9-|-9--9---9-9-9-9-9-9-||
|-9--9---9-9-9-9-9-9-|-9--9---9-9-9-9-9-9-||
|-7--7---7-7-7-7-7-7-|-7--7---7-7-7-7-7-7-||
|--------------------|--------------------||
|
| E.   S e e E e e e   E.   S e e E e e e
|-7----7-7-7---7-7-7-|-7----7-7-7---7-7-7-||
|-8----8-8-8---8-8-8-|-8----8-8-8---8-8-8-||
|-7----7-7-7---7-7-7-|-7----7-7-7---7-7-7-||
|-9----9-9-9---9-9-9-|-9----9-9-9---9-9-9-||
|-7----7-7-7---7-7-7-|-7----7-7-7---7-7-7-||
|--------------------|--------------------||


 7th Verse
  Em7
  Gtr I
  E E E E E E Q    E E E E E E Q    E E E E E E Q    W
|-7-7---7-7------|-7-7---7-7------|-7-7---7-7------|-7----|
|-8-8---8-8------|-8-8---8-8------|-8-8---8-8------|-8----|
|-7-7---7-7------|-7-7---7-7------|-7-7---7-7------|-7----|
|-9-9---9-9------|-9-9---9-9------|-9-9---9-9------|-9----|
|-7-7---7-7------|-7-7---7-7------|-7-7---7-7------|-7----|
|----------------|----------------|----------------|------|


  Am7                  Bm7
  e  e   e e e e e e   e  e   e e e e e e
|--------------------|--------------------|
|--------------------|--------------------|
|--------------------|--------------------|
|-7--7---7-7-7-7-7-7-|-9--9---9-9-9-9-9-9-|
|-7--7---7-7-7-7-7-7-|-9--9---9-9-9-9-9-9-|
|-5--5---5-5-5-5-5-5-|-7--7---7-7-7-7-7-7-|
|
| Gtr III
| E.   S e e E e e E   E.   S e e e e e e
|-5----5-5-5-x-5-5---|-7----7-7-7-7-7-7-7-|
|-5----5-5-5-x-5-5---|-7----7-7-7-7-7-7-7-|
|-5----5-5-5-x-5-5---|-7----7-7-7-7-7-7-7-|
|-5----5-5-5-x-5-5---|-7----7-7-7-7-7-7-7-|
|-7----7-7-7-x-7-7---|-9----9-9-9-9-9-9-9-|
|-5----5-5-5-x-5-5---|-7----7-7-7-7-7-7-7-|


  Em7
  e  e   e e e e e e   e  e   e e e e e e
|--------------------|--------------------|
|--------------------|--------------------|
|-9--9---9-9-9-9-9-9-|-9--9---9-9-9-9-9-9-|
|-9--9---9-9-9-9-9-9-|-9--9---9-9-9-9-9-9-|
|-7--7---7-7-7-7-7-7-|-7--7---7-7-7-7-7-7-|
|--------------------|--------------------|
|
| E.   S e e E e e e   E.   S e e E e e e
|-7----7-7-7---7-7-7-|-7----7-7-7---7-7-7-|
|-8----8-8-8---8-8-8-|-8----8-8-8---8-8-8-|
|-7----7-7-7---7-7-7-|-7----7-7-7---7-7-7-|
|-9----9-9-9---9-9-9-|-9----9-9-9---9-9-9-|
|-7----7-7-7---7-7-7-|-7----7-7-7---7-7-7-|
|--------------------|--------------------|


  Am7                  Bm7
  e  e   e e e e e e   e  e   e e e e e e
|--------------------|--------------------|
|--------------------|--------------------|
|--------------------|--------------------|
|-7--7---7-7-7-7-7-7-|-9--9---9-9-9-9-9-9-|
|-7--7---7-7-7-7-7-7-|-9--9---9-9-9-9-9-9-|
|-5--5---5-5-5-5-5-5-|-7--7---7-7-7-7-7-7-|
|
| E.   S e e E e e E   E.   S e e e e e e
|-5----5-5-5-x-5-5---|-7----7-7-7-7-7-7-7-|
|-5----5-5-5-x-5-5---|-7----7-7-7-7-7-7-7-|
|-5----5-5-5-x-5-5---|-7----7-7-7-7-7-7-7-|
|-5----5-5-5-x-5-5---|-7----7-7-7-7-7-7-7-|
|-7----7-7-7-x-7-7---|-9----9-9-9-9-9-9-9-|
|-5----5-5-5-x-5-5---|-7----7-7-7-7-7-7-7-|


  Em7
  e  e   e e e e e e   e  e   e e e e e e
|--------------------|--------------------||
|--------------------|--------------------||
|-9--9---9-9-9-9-9-9-|-9--9---9-9-9-9-9-9-||
|-9--9---9-9-9-9-9-9-|-9--9---9-9-9-9-9-9-||
|-7--7---7-7-7-7-7-7-|-7--7---7-7-7-7-7-7-||
|--------------------|--------------------||
|
| E.   S e e E e e e   E.   S e e E e e e
|-7----7-7-7---7-7-7-|-7----7-7-7---7-7-7-||
|-8----8-8-8---8-8-8-|-8----8-8-8---8-8-8-||
|-7----7-7-7---7-7-7-|-7----7-7-7---7-7-7-||
|-9----9-9-9---9-9-9-|-9----9-9-9---9-9-9-||
|-7----7-7-7---7-7-7-|-7----7-7-7---7-7-7-||
|--------------------|--------------------||


 Interlude
  Em7                             Bm7
  Gtr II
                                   ~~~~~~~~~~
  E   a  E    E  E  E      +S   S  Q     +H.       +Q
|---------------15-17pb19r(17)p15-17--|-(17)------(17)\--|
|------------17-----------------------|------------------|
|----14s16----------------------------|------------------|
|-------------------------------------|------------------|
|-------------------------------------|------------------|
|-------------------------------------|------------------|
|
| Gtr III
| E.       S  e  e  e       E      Q     +W
|-7--------7--7--7--7--------------7--|--(7)-------------|
|-8--------8--8--8--8--------------7--|--(7)-------------|
|-7--------7--7--7--7--------------7--|--(7)-------------|
|-9--------9--9--9--9--------------7--|--(7)-------------|
|-7--------7--7--7--7--------------9--|--(9)-------------|
|----------------------------------7--|--(7)-------------|


  Em7                             D
                                   ~~~~~~~~~~~~~~~~~~~~
  E   a  E    E  E  E      +S   S  Q     +Q    Q   +H
|---------------15-17pb19r(17)p15-17--|-(17)--------------||
|------------17-----------------------|-------12--(12)----||
|----14s16----------------------------|-------------------||
|-------------------------------------|-------------------||
|-------------------------------------|-------------------||
|-------------------------------------|-------------------||
|
| E.       S  e  e  e       E      Q     +W
|-7--------7--7--7--7--------------5--|--(5)--------------||
|-8--------8--8--8--8--------------7--|--(7)--------------||
|-7--------7--7--7--7--------------7--|--(7)--------------||
|-9--------9--9--9--9--------------7--|--(7)--------------||
|-7--------7--7--7--7--------------5--|--(5)--------------||
|-------------------------------------|-------------------||


 8th Verse
  E5
  Gtr I
  e e e e e e e e   e e e e e e e e   e e e e e e e e   e e e e e e e e
|-----------------|-----------------|-----------------|-----------------|
|-----------------|-----------------|-----------------|-----------------|
|-9-9-9-9-9-9-9-9-|-9-9-9-9-9-9-9-9-|-9-9-9-9-9-9-9-9-|-9-9-9-9-9-9-9-9-|
|-9-9-9-9-9-9-9-9-|-9-9-9-9-9-9-9-9-|-9-9-9-9-9-9-9-9-|-9-9-9-9-9-9-9-9-|
|-7-7-7-7-7-7-7-7-|-7-7-7-7-7-7-7-7-|-7-7-7-7-7-7-7-7-|-7-7-7-7-7-7-7-7-|
|-----------------|-----------------|-----------------|-----------------|


    Am7                  Bm7
    e  e   e e e e e e   e  e   e e e e e e
||---------------------|--------------------|
||o--------------------|--------------------|
||---------------------|--------------------|
||--7--7---7-7-7-7-7-7-|-9--9---9-9-9-9-9-9-|
||o-7--7---7-7-7-7-7-7-|-9--9---9-9-9-9-9-9-|
||--5--5---5-5-5-5-5-5-|-7--7---7-7-7-7-7-7-|
|
|   Gtr II
|   W                    W
||---------------------|--------------------|
||o--------------------|--------------------|
||---------------------|--------------------|
||---------------------|--------------------|
||o--------------------|--------------------|
||---------------------|--------------------|
|
|   Gtr III
|   E.   S e e E e e E   E.   S e e e e e e
||--5----5-5-5-x-5-5---|-7----7-7-7-7-7-7-7-|
||o-5----5-5-5-x-5-5---|-7----7-7-7-7-7-7-7-|
||--5----5-5-5-x-5-5---|-7----7-7-7-7-7-7-7-|
||--5----5-5-5-x-5-5---|-7----7-7-7-7-7-7-7-|
||o-7----7-7-7-x-7-7---|-9----9-9-9-9-9-9-9-|
||--5----5-5-5-x-5-5---|-7----7-7-7-7-7-7-7-|


  Em7
  e  e   e e e     e e e   e  e   e e e e e e
|------------------------|----------------------||
|------------------------|---------------------o||
|-9--9---9-9-9-----9-9-9-|-9--9---9-9-9-9-9-9---||
|-9--9---9-9-9-----9-9-9-|-9--9---9-9-9-9-9-9---||
|-7--7---7-7-7-----7-7-7-|-7--7---7-7-7-7-7-7--o||
|------------------------|----------------------||
|
| E  E   E E E     E E E   W
|------------------------|----------------------||
|----8---7-8-8pb10r8-7-8-|---------------------o||
|------------------------|-9--------------------||
|------------------------|----------------------||
|------------------------|---------------------o||
|------------------------|----------------------||
|
| E.   S e e E     e e e   E.   S e e E e e e
|-7----7-7-7-------7-7-7-|-7----7-7-7---7-7-7---||
|-8----8-8-8-------8-8-8-|-8----8-8-8---8-8-8--o||
|-7----7-7-7-------7-7-7-|-7----7-7-7---7-7-7---||
|-9----9-9-9-------9-9-9-|-9----9-9-9---9-9-9---||
|-7----7-7-7-------7-7-7-|-7----7-7-7---7-7-7--o||
|------------------------|----------------------||


   Outro
    e  e   e e e     e e e    e    e   e e e e e e
||-------------------------|-----------------------|
||o------------------------|-----------------------|
||-------------------------|-----------------------|
||--7--7---7-7-7-----7-7-7-|--9----9---9-9-9-9-9-9-|
||o-7--7---7-7-7-----7-7-7-|--9----9---9-9-9-9-9-9-|
||--5--5---5-5-5-----5-5-5-|--7----7---7-7-7-7-7-7-|
|
|   E  E   E E E     E E E    W
||-------------------------|-----------------------|
||o----8---7-8-8pb10r8-7-8-|-10b12-----------------|
||-------------------------|-----------------------|
||-------------------------|-----------------------|
||o------------------------|-----------------------|
||-------------------------|-----------------------|
|
|   E.   S e e E     e e E    E.     S e e e e e e
||--5----5-5-5-x-----5-5---|--7------7-7-7-7-7-7-7-|
||o-5----5-5-5-x-----5-5---|--7------7-7-7-7-7-7-7-|
||--5----5-5-5-x-----5-5---|--7------7-7-7-7-7-7-7-|
||--5----5-5-5-x-----5-5---|--7------7-7-7-7-7-7-7-|
||o-7----7-7-7-x-----7-7---|--9------9-9-9-9-9-9-9-|
||--5----5-5-5-x-----5-5---|--7------7-7-7-7-7-7-7-|


  E5
  e  e   e e e e e e    e  e   e e e e e e   4x
|--------------------|-----------------------||
|--------------------|----------------------o||
|-9--9---9-9-9-9-9-9-|--9--9---9-9-9-9-9-9---||
|-9--9---9-9-9-9-9-9-|--9--9---9-9-9-9-9-9---||
|-7--7---7-7-7-7-7-7-|--7--7---7-7-7-7-7-7--o||
|--------------------|-----------------------||
|
| W                    +W                    4x
|--------------------|-----------------------||
|--------------------|----------------------o||
|-9------------------|-(9)-------------------||
|-9------------------|-(9)-------------------||
|-7------------------|-(7)------------------o||
|--------------------|-----------------------||
|
| E.   S e e E e e e    E.   S e e E e e e   4x
|-7----7-7-7---7-7-7-|--7----7-7-7---7-7-7---||
|-8----8-8-8---8-8-8-|--8----8-8-8---8-8-8--o||
|-7----7-7-7---7-7-7-|--7----7-7-7---7-7-7---||
|-9----9-9-9---9-9-9-|--9----9-9-9---9-9-9---||
|-7----7-7-7---7-7-7-|--7----7-7-7---7-7-7--o||
|--------------------|-----------------------||


Duration Legend
---------------
W - whole; H - half; Q - quarter; E - 8th; S - 16th; T - 32nd; X - 64th; a - acciaccatura
+ - note tied to previous; . - note dotted; .. - note double dotted
Uncapitalized letters represent notes that are staccato (1/2 duration)
Irregular groupings are notated above the duration line
Duration letters will always appear directly above the note/fret number it represents the
duration for.  Duration letters with no fret number below them represent rests.  Multi-
bar rests are notated in the form Wxn, where n is the number of bars to rest for.  Low
melody durations appear below the staff

Tablature Legend
----------------
 h   - hammer-on
 p   - pull-off
 b   - bend
 pb  - pre-bend
 r   - bend release (if no number after the r, then release immediately)
 /\  - slide into or out of (from/to "nowhere")
 s   - legato slide
 S   - shift slide
  - natural harmonic
[n]  - artificial harmonic
n(n) - tapped harmonic
 ~   - vibrato
 tr  - trill
 T   - tap
 TP  - trem. picking
 PM  - palm muting
\n/  - tremolo bar dip; n = amount to dip
 \n  - tremolo bar down
 n/  - tremolo bar up
/n\  - tremolo bar inverted dip
 =   - hold bend; also acts as connecting device for hammers/pulls
 <>  - volume swell (louder/softer)
 x   - on rhythm slash represents muted slash
 o   - on rhythm slash represents single note slash

Misc Legend
-----------
 |  - bar
||  - double bar
||o - repeat start
o|| - repeat end
*|  - double bar (ending)
 :  - bar (freetime)
 $  - Segno
 &  - Coda
Tempo markers -  = BPM(8/16=s8/s16), where s8 = swing 8ths, s16 = swing 16ths




A vacation in a foreign land
Uncle Sam does the best he can
You're in the army now
Oh, oh, you're in the army now

Now you remember what the draftman said
Nothing to do all day but stay in bed
You're in the army now
Oh, oh, you're in the army now

You'll be the hero of the neighbourhood
Nobody knows that you left for good
You're in the army now
Oh, oh, you're in the army now

Smiling faces as you wait to land
But once you get there no one gives a damn
You're in the army now
Oh, oh, you're in the army now

Handgrenades flying over your head
Missiles flying over your head
If you want to survive get out of bed
You're in the army now
Oh, oh, you're in the army now

Shots ring out in the dead of night
The sergant calls [stand up and fight!]
You're in the army now
Oh, oh, you're in the army now

You've got your orders better shoot on sight
Your finger's on the trigger
But it don't seem right
You're in the army now
Oh, oh, you're in the army now
You're in the army now
Oh, oh, you're in the army now

Night is falling and you just can't see
Is this illusion or reality
You're in the army now
Oh, oh, you're in the army now
You're in the army now
Oh, oh, you're in the army now

Oh, oh, you're in the army now

            
            
Suggest correction
Creating personal tab
Creating personal tab
You can edit any tab online and save it as your Personal.

You can edit, replace or remove any tab part or add personal notes – all changes will be seen only by you.

Personal tabs can be accessed anytime from any device, even offline.
Learn more »
Give kudos to tab author, rate the tab!
1 2 3 4 5
comments
print report bad tab
guest
You may want to rate the tab now too:
select rating
Wanna post a correction for this tab? Suggest correction