Oops, an error
Loading. Please wait.

Jam Side Down tab

version 1
version 1

Whole song

3,427 views 3 this week
2 commentsread comments
1 2 3 4 5
x 6
add to favorites
×
Save as Personal and add changes to this tab that will be seen only by you. Learn more ›
×
You can save this tab as Personal to edit and correct it or add notes. All changes will be seen only by you. Learn more »
launch autoscroll
font size
0
reset
how to read this tab
guitar tuner
edit
Autoscroll
slow
fast
+/-
esc
set tempo
stop
Author
Difficulty
Not a great song but it has a nice little riff to it.

INTRO (main riff)

E   -------------------------------  |
B   -------------------------------  |
G   -------------------------------  |
D   0-7-6-7---7-6-7---7-6-7-9-7-5-7  |x4
A   --------7-------0--------------  |
E   -------------------------------  |

VERSE(s)

E   ----------------------------------------------------------------|
B   ----------------------------------------------------------------|
G   ----------------------------------------------------------------|
D   7-7-9-7-7-7-9-7-7-7-9-7-7-7-9-7---------------------------------|
A   5-5-5-5-5-5-5-5-5-5-5-5-5-5-5-5-7-7-9-7-7-7-9-7-7-7-9-7-7-7-9-7-|
E   --------------------------------5-5-5-5-5-5-5-5-5-5-5-5-5-5-5-5-|

E   ----------------------------------------------------------------|
B   ----------------------------------------------------------------|
G   ----------------------------------------------------------------|
D   7-7-9-7-7-7-9-7-7-7-9-7-7-7-9-7---------------------------------|
A   5-5-5-5-5-5-5-5-5-5-5-5-5-5-5-5-7-7-9-7-7-7-9-7-7-7-9-7-7-7-9-7-|
E   --------------------------------5-5-5-5-5-5-5-5-5-5-5-5-5-5-5-5-|

E   ----------------------------------------------------------------|
B   ----------------------------------------------------------------|
G   ----------------------------------------------------------------|
D   7-7-9-7-7-7-9-7-7-7-9-7-7-7-9-7---------------------------------|
A   5-5-5-5-5-5-5-5-5-5-5-5-5-5-5-5-7-7-9-7-7-7-9-7-7-7-9-7-7-7-9-7-|
E   --------------------------------5-5-5-5-5-5-5-5-5-5-5-5-5-5-5-5-|

E   ----------------------------------------------------------------|
B   ----------------------------------------------------------------|
G   ----------------------------------------------------------------|
D   7-7-9-7-7-7-9-7-------------------------------------------------|
A   5-5-5-5-5-5-5-5-9-9-11-9-9-9-11-9-11-11-11-11-11-11-11-11-11-11-|
E   ----------------7-7--7-7-7-7--7-7--7--7--7--7--7--7--7--7--7--7-|

E   ------------------|
B   ------------------|
G   ------------------|
D   ------------------|
A   11-11-11-11-11-11-|
E   -7--7--7--7--7--7-|

CHORUS(es)

E   ------------------------------------------------------------------|
B   ------------------------------------------------------------------|
G   ------------------------------------------------------------------|
D   7-7-9-7-9-9-11-9-----------------7-7-9-7-9-9-11-9-----------------|
A   5-5-5-5-7-7--7-7-7-7-9-7-7-7-9-7-5-5-5-5-7-7--7-7-7-7-9-7-7-7-9-7-|
E   -----------------5-5-5-5-5-5-5-5------------------5-5-5-5-5-5-5-5-|

E   -----------------------------------------------------------------|
B   -----------------------------------------------------------------|
G   -----------------------------------------------------------------|
D   7-7-9-7-9-9-11-9---------7-7-9-7-7-7-9-7-7-7-9-7-9-9-11-9-9-11-9-|
A   5-5-5-5-7-7--7-7-7-7-9-7-5-5-5-5-5-5-5-5-5-5-5-5-7-7--7-7-7--7-7-|
E   -----------------5-5-5-5-----------------------------------------|

SOLO (at 1:38 after 2nd chorus)

E   --------------------------------------------------------------------------|
B   -----------------------------------------------------9---9-10-------------|
G   -----------------------9\-----------11-11-11------11---9--------9----11~~-|
D   ---/12---11-9-----11-------9-----------------12-------------------11------|
A   --------------------------------12----------------------------------------|
E   --------------------------------------------------------------------------|

BRIDGE

    You are my destiny, you
E   ------------------------------------|
B   ------------------------------------|
G   ------------------------------------|
D   7-7-9-9-10-10-9-9-7-7-9-9-10-10-9-9-|
A   5-5-5-5--5--5-5-5-5-5-5-5-5-5--5--5-|
E   ------------------------------------|

    Bring out the best in me, you
E   ------------------------------------|
B   ------------------------------------|
G   ------------------------------------|
D   ------------------------------------|
A   7-7-9-9-10-10-9-9-7-7-9-9-10-10-9-9-|
E   5-5-5-5--5--5-5-5-5-5-5-5--5--5-5-5-|

    You make me feel so lucky
E   ------------------------------------|
B   ------------------------------------|
G   ------------------------------------|
D   7-7-9-9-10-10-9-9-7-7-9-9-10-10-9-9-|
A   5-5-5-5--5--5-5-5-5-5-5-5-5-5--5--5-|
E   ------------------------------------|

                        so lucky                       to have you
E   -----------------------------------------------------------------|
B   -----------------------------------------------------------------|
G   2-2-2--------------------------2-2-2-----------------------------|
D   0-0-0---2-2-2------------------0-0-0---2-2-2---------------------|
A   --------0-0-0---2----------------------0-0-0---2-----------------|
E   ----------------0------------------------------0-----------------|

                        and I need you  yeah I need u
E   --------------------------------------------------|
B   --------------------------------------------------|
G   2-2-2---------------------------------------------|
D   0-0-0---2-2-2-------------------------------------|
A   --------0-0-0---2-2-2-2-2-2-2-2-2-2-2-2-2-2-2-2-2-|
E   ----------------0-0-0-0-0-0-0-0-0-0-0-0-0-0-0-0-0-|

Tabbed by JAKE TREVVOR

            
            
Suggest correction
Creating personal tab
Creating personal tab
You can edit any tab online and save it as your Personal.

You can edit, replace or remove any tab part or add personal notes – all changes will be seen only by you.

Personal tabs can be accessed anytime from any device, even offline.
Learn more »
comments
print report bad tab
2 comments total.
-1 reply
Bexerwolf 154 Dec 23, 2006 02:19 AM

gr8 tab! All i could find wrong was the sixth note on the solo, it should be 11 not 9!

-1 reply
|Guitarhead| 268 Feb 17, 2009 06:05 AM

Pretty good. Compared to the others anyway. Hopefully this is not the best one there is...

guest
You may want to rate the tab now too:
select rating
Wanna post a correction for this tab? Suggest correction