Oops, an error
Loading. Please wait.

Jam Side Down tab

version 2
version 2

Whole song

1,203 views 1 this week
2 commentsread comments
1 2 3 4 5
2 more votes to show rating
add to favorites
×
Save as Personal and add changes to this tab that will be seen only by you. Learn more ›
×
You can save this tab as Personal to edit and correct it or add notes. All changes will be seen only by you. Learn more »
launch autoscroll
font size
0
reset
how to read this tab
guitar tuner
edit
Autoscroll
slow
fast
+/-
esc
set tempo
stop
Jam Side Down
Status Quo
Heavy Traffic 2002


  MAIN RIFF
E|------------------------------------------------------------------|
B|------------------------------------------------------------------|
G|---2-1-2---2-1-2---2-1-2-4-2-1-2----2-1-2---2-1-2---2-1-2-4-2-1-2-|
D|-0-------2------------------------0-------2-----------------------|
A|-----------------0--------------------------------0---------------|
E|------------------------------------------------------------------|


 SOLO 1:37
E|-------------------------------------------------------|
B|----------5\-------------------------------------------|
G|-/7-6-4-6---2--11-11-11----11/13----13-14--------------|
D|------------------------12-------14-------14----14/16~-|
A|---------------------------------------------16--------|
E|-------------------------------------------------------|



The open strings on the main riff are not compulsory, 
but do outline basic harmony when playing alone. 
This is very much correct.

            
            
Suggest correction
Creating personal tab
Creating personal tab
You can edit any tab online and save it as your Personal.

You can edit, replace or remove any tab part or add personal notes – all changes will be seen only by you.

Personal tabs can be accessed anytime from any device, even offline.
Learn more »
Give kudos to tab author, rate the tab!
1 2 3 4 5
comments
print report bad tab
2 comments total.
0 reply
belavista man 2,257 Apr 09, 2007 03:35 AM

Will you stop putting 'This is 100% right!' at the end of all your tabs! It doesnt change the way people think of them!

0 reply
|Guitarhead| 268 Feb 17, 2009 06:02 AM

This is extremely incomplete and incorrect.

guest
You may want to rate the tab now too:
select rating
Wanna post a correction for this tab? Suggest correction