Oops, an error
Loading. Please wait.

Rockin All Over The World bass

version 2
version 2

Whole song

Interactive

27,460 views 45 this week
2 commentsread comments
1 2 3 4 5
x 3
add to favorites
×
Save as Personal and add changes to this tab that will be seen only by you. Learn more ›
×
You can save this tab as Personal to edit and correct it or add notes. All changes will be seen only by you. Learn more »
launch autoscroll
font size
0
reset
guitar tuner
backing track
0:00
0:00
edit
Autoscroll
slow
fast
+/-
esc
set tempo
stop
Author
Difficulty
-------------------------------------------------------------------------------
		    Status Quo - Rockin' All Over The World
-------------------------------------------------------------------------------

Tuning: Standard

INTRO

G|------15/17\---------------------------------------------------------------|
D|---------------------------------------------------------------------------|
A|---15----------------------------------------------------------------------|
E|---------------------------------------------------------------------------|

PRE VERSE (ONLY PLAY BOTTOM HALF WHEN PLAYING LIVE VERSION)

G|---------------------------------------------------------------------------|
D|---------------------------------------------------------------------------|
A|-------33333333333330123333333333333---------------------------------------|
E|---353-------------------------------353-----------------------------------|

G|---------------------------------------------------------------------------|
D|---------------------------------------------------------------------------|
A|-------33333333333330123333333333333---------------------------------------|
E|---353-------------------------------353-----------------------------------|

VERSE 1

G|---------------------------------------------------------------------------|
D|---------------------------------------------------------------------------|
A|---33333333333330---------------01233333333--------3333333333333-----------|
E|-----------------301111111111111-----------33333353-------------353--------|

VERSE 2

G|---------------------------------------------------------------------------|
D|---------------------------------------------------------------------------|
A|---33333333333330---------------01233333333--------3333333333333012--------|
E|-----------------301111111111111-----------33333353------------------------|

CHORUS

G|---------------------------------------------------------------------------|
D|---------------------------------------------------------------------------|
A|---33333333333330---------------01233333333--------3333333333333-----------|
E|-----------------301111111111111-----------33333353-------------353--------|

SOLO 1

G|---------------------------------------------------------------------------|
D|---------------------------------------------------------------------------|
A|---33333333333330---------------01233333333--------3333333333333012--------|
E|-----------------301111111111111-----------33333353------------------------|

SOLO 2

G|---------------------------------------------------------------------------|
D|---------------------------------------------------------------------------|
A|---33333333333330---------------01233333333--------3333333333333-----------|
E|-----------------301111111111111-----------33333353-------------353--------|

VERSE 3

G|---------------------------------------------------------------------------|
D|---------------------------------------------------------------------------|
A|---33333333333330---------------01233333333--------3333333333333012--------|
E|-----------------301111111111111-----------33333353------------------------|


CHORUS

G|---------------------------------------------------------------------------|
D|---------------------------------------------------------------------------|
A|---33333333333330---------------01233333333--------3333333333333-----------|
E|-----------------301111111111111-----------33333353-------------35---------|

ALTERED CHORUS 1

G|---------------------------------------------------------------------------|
D|---------------------------------------------------------------------------|
A|---33----------------33-/33-/333333012-------------------------------------|
E|------00-11-22-33-33-------------------------------------------------------|

CHORUS

G|---------------------------------------------------------------------------|
D|---------------------------------------------------------------------------|
A|---33333333333330---------------01233333333--------3333333333333012--------|
E|-----------------301111111111111-----------33333353------------------------|

ALTERED CHORUS 2

G|---------------------------------------------------------------------------|
D|---------------------------------------------------------------------------|
A|---33333333----------------------------------------------3333333333333012--|
E|------------00000000-11111111-22222222-33333333-33333333-------------------|

OUTRO

G|---------------------------------------------------------------------------|
D|---------------------------------------------------------------------------|
A|---33333333----------------------------------------------3333333333333012--|
E|------------00000000-11111111-22222222-33333333-33333333-------------------|

OUTRO

G|---------------------------------------------------------------------------|
D|---------------------------------------------------------------------------|
A|---33333333----------------------------------------------3333333333333012--|
E|------------00000000-11111111-22222222-33333333-33333333-------------------|

OUTRO

G|---------------------------------------------------------------------------|
D|---------------------------------------------------------------------------|
A|---33333333----------------------------------------------3333333333333012--|
E|------------00000000-11111111-22222222-33333333-33333333-------------------|

OUTRO (ORIGINAL FINISHES WITH A FADE BUT LIVE PLAY THIS)

*KEEP HITTING LAST '3' FAST UNTILL GUITAR SIGNALS LAST CHORD WHICH YOU SLIDE DOWN

G|---------------------------------------------------------------------------|
D|---------------------33333333-44444444-------------------------------------|
A|---33333333-44444444-------------------------------------6543-1-2-3*----3\-|
E|---------------------------------------33333333-33333333-------------------|


| /  slide up
| \  slide down
| h  hammer-on
| p  pull-off
| ~  vibrato
| +  harmonic
| x  Mute note
===============================================================================


LYRICS

Oh here we are and here we are and here we go
All aboard and we're hittin' the road
Here we go
Rockin' all over the world

Well gidy up gidy up and get away
We're goin' crazy and we're goin' today
Here we go
Rockin' all over the world

And I like it, I like it, I like it, I like it
I li-li-li-like it, li-li-li-like it
Here we go
Rockin' all over the world

I'm gonna tell your mama what you're gonna do
So come on out with your dancing shoes
Here we go
Rockin' all over the world

And I like it, I like it, I like it, I like it
I li-li-li-like it, li-li-li-like it
Here we go
Rockin' all over the world

And I like it, I like it, I like it, I like it
I li-li-li-like it, li-li-li-like it
Here we go
Rockin' all over the world

And I like it, I like it, I like it, I like it
I li-li-li-like it, li-li-li-like it
Here we go
Rockin' all over the world

And I like it, I like it, I like it, I like it
I li-li-li-like it, li-li-li-like it
Here we go
Rockin' all over the world
Suggest correction
Creating personal tab
Creating personal tab
You can edit any tab online and save it as your Personal.

You can edit, replace or remove any tab part or add personal notes – all changes will be seen only by you.

Personal tabs can be accessed anytime from any device, even offline.
Learn more »
Give kudos to tab author, rate the tab!
1 2 3 4 5
comments
print report bad tab
2 comments total.
+1 reply
thinlizzymyhero 31 Jan 06, 2009 10:56 AM

great tab man but i think the live endin goes like this
G|---------------------------------------
D|------------22222222-33333333-44444444-
A|---33333333----------------------------
E|---------------------------------------
then continue as u tabbed, the C# just isnt right

0 reply
01meliac 237 Jan 06, 2009 12:18 PM

nah lol if u listen proper to the live ending it goes exact like that lol goes sown a fret each note :)

guest
You may want to rate the tab now too:
select rating
Wanna post a correction for this tab? Suggest correction