Oops, an error
Loading. Please wait.

Softer Ride tab

4,617 views 6 this week
no commentswrite comment
1 2 3 4 5
x 3
add to favorites
×
Save as Personal and add changes to this tab that will be seen only by you. Learn more ›
×
You can save this tab as Personal to edit and correct it or add notes. All changes will be seen only by you. Learn more »
launch autoscroll
font size
0
reset
how to read this tab
guitar tuner
edit
Autoscroll
slow
fast
+/-
esc
set tempo
stop
Author
Softer Ride
Status quo


Intro:

Slightly palm muted
  1 + + 2 + + 3 + + 4 + +  1 + + 2 + + 3 + + 4 + +  
E|------------------------|--------------------------|
B|------------------------|--------------------------|
G|------------------------|--------------------------|
D|----7-----7-----7-----7-|----7-----7-----7-----5/7-|
A|0-----0-----0-----0-----|0-----0-----0-----0-------|
E|------------------------|--------------------------|

  1 + + 2 + + 3 + + 4 + +  1 + + 2 + + 3 + + 4 + +   
E|------------------------|--------------------------|
B|------------------------|--------------------------|
G|------------------------|--------------------------|
D|----7-----7-----7-----7-|----7-----7-----7-----5/7-|
A|------0-----0-----0-----|0-----0-----0-----0-------|
E|------------------------|--------------------------|

  1 + +   2 + + 3 + + 4 + +  1 + + 2 + + 3 + + 4 + +   
E|--------------------------|--------------------------|
B|--------------------------|--------------------------|
G|--------------------------|--------------------------|
D|----5/7-----7-----7-----7-|----7-----7-----7-----5/7-|
A|--------0-----0-----0-----|0-----0-----0-----0-------|
E|--------------------------|--------------------------|

  1 + + 2 + + 3 + + 4 + +  1 + + 2 + + 3 + + 4 + +   
E|------------------------|--------------------------|
B|------------------------|--------------------------|
G|------------------------|--------------------------|
D|----7-----7-----7-----7-|----7-----7-----7-----5/7-|
A|------0-----0-----0-----|0-----0-----0-----0-------|
E|------------------------|--------------------------|

  1 + +   2 + + 3 + + 4 + +  1 + + 2 + + 3 + + 4 + +  
E|--------------------------|------------------------|
B|--------------------------|------------------------|
G|--------------------------|------------------------|
D|----5/7-----7-----7-----7-|----7-5---5-------------|
A|--------0-----0-----0-----|------------7---7-5h7p5-|
E|--------------------------|------------------------|

  1 + + 2 + + 3 + + 4 + +  1 + + 2 + + 3 + + 4 + +  
E|------------------------|--------------------------|
B|------------------------|--------------------------|
G|------------------------|--------------------------|
D|----7-----7-----7-----7-|----7-----7-----7-----5/7-|
A|4-----0-----0-----0-----|0-----0-----0-----0-------|
E|------------------------|--------------------------|

  1 + +   2 + + 3 + + 4 + +  1 + + 2 + + 3 + + 4 + +  
E|--------------------------|------------------------|
B|--------------------------|------------------------|
G|--------------------------|------------------------|
D|----5/7-----7-----7-----7-|----7-5---5-------------|
A|--------0-----0-----0-----|------------7---7-5h7p5-|
E|--------------------------|------------------------|

  1 + + 2 + + 3 + + 4 + +  1 + + 2 + + 3 + + 4 + + 
E|------------------------|------------------------|
B|------------------------|------------------------|
G|------------------------|------------------------|
D|----7-----7-----7-----7-|----7-----7-----7-----7-|
A|4-----0-----0-----0-----|0-----0-----0-----0-----|
E|------------------------|------------------------|

Verse:

    1 + + 2 + + 3 + + 4 + +    
E||--------------------------||
B||*------------------------*||
G||--------------------------|| 3x
D||-----7-----7-----7-----7--||
A||*0-----0-----0-----0-----*||
E||--------------------------||

  1 + + 2 + + 3 + + 4 + +    
E|--------------------------|
B|--------------------------|
G|--------------------------|
D|----7-----7-----7-----5/7-|
A|0-----0-----0-----0-------|
E|--------------------------|

  1 + +   2 + + 3 + + 4 + +  1 + + 2 + + 3 + + 4 + +  
E|--------------------------|------------------------|
B|--------------------------|------------------------|
G|--------------------------|------------------------|
D|----5/7-----7-----7-----7-|----7-5---5-------------|
A|--------0-----0-----0-----|------------7---7-5h7p5-|
E|--------------------------|------------------------|

  1 + + 2 + + 3 + + 4 + +  1 + + 2 + + 3 + + 4 + +  
E|------------------------|--------------------------|
B|------------------------|--------------------------|
G|------------------------|--------------------------|
D|----7-----7-----7-----7-|----7-----7-----7-----5/7-|
A|4-----0-----0-----0-----|0-----0-----0-----0-------|
E|------------------------|--------------------------|

  1 + +   2 + + 3 + + 4 + +  1 + + 2 + + 3 + + 4 + +  
E|--------------------------|------------------------|
B|--------------------------|------------------------|
G|--------------------------|------------------------|
D|----5/7-----7-----7-----7-|----7-5---5-------------|
A|--------0-----0-----0-----|------------7---7-5h7p5-|
E|--------------------------|------------------------|

  1 + + 2 + + 3 + + 4 + +  1 + + 2 + + 3 + + 4 + + 
E|------------------------|------------------------|
B|------------------------|------------------------|
G|------------------------|------------------------|
D|----7-----7-----7-----7-|----7-----7-----7-----7-|
A|4-----0-----0-----0-----|0-----0-----0-----0-----|
E|------------------------|------------------------|

Repeat the whole thing to complete the verse but play
the first bar 7x instead of 3x.

Chromatic Riff

    1 + + 2 + + 3 + + 4 + +  1 + + 2 + + 3 + + 4 + +    
E||-------------------------|-------------------------||
B||*------------------------|------------------------*||
G||-------------------------|-------------------------|| 3x
D||-5---6---7---9---8---7---|-------------------------|| 
A||*------------------------|3---4---5---5---6---7---*||
E||-------------------------|-------------------------||

    1 + + 2 + + 3 + + 4 + +   
E||--------------------------||
B||*------------------------*|| 8x
G||--------------------------|| Gradually built up the volume
D||-----7-----7-----7-----7--|| during first two bars
A||*0-----0-----0-----0-----*||
E||--------------------------||

Second verse, same as the first one plus:

  1 + + 2 + + 3 + + 4 + +  1 + + 2 + + 3 + + 4 + +  
E|------------------------|------------------------|
B|------------------------|------------------------|
G|------------------------|----------7-----7-----7-|
D|0---0-0---0-0---0-0---0-|0---0-0-----------0-----|
A|------------------------|------------------------|
E|------------------------|------------------------|

  1 + + 2 + + 3 + + 4 + +  1 + + 2 + + 3 + + 4 + +  
E|------------------------|------------------------|
B|------------------------|------------------------|
G|----7-----7-----7-----7-|----7-----7-----7-------|
D|------0-----------0-----|------0-----------0-----|
A|------------------------|------------------------|
E|------------------------|------------------------|

    1 + + 2 + + 3 + + 4 + +    
E||--------------------------||
B||*------------------------*||
G||--------------------------|| 3x
D||-----7-----7-----7-----7--||
A||*0-----0-----0-----0-----*||
E||--------------------------||

  1 + + 2 + + 3 + + 4 + +  1 + + 2 + + 3 + + 4 + +  
E|------------------------|------------------------|
B|------------------------|------------------------|
G|------------------------|------------------------|
D|----7-----7-----7-7/9-9-|9---9-----9-----9-----9-|
A|0-----0-----0-----------|------7-----------7-----|
E|------------------------|------------------------|

  1 + + 2 + + 3 + + 4 + +  
E|------------------------|
B|------------------------|
G|------------------------|
D|----9-----9-----9-------|
A|------7-----------0-----|
E|------------------------|

Chromatic riff 1x

  1 + + 2 + + 3 + + 4 + +  1 + + 2 + + 3 + + 4 + +  
E|------------------------|------------------------|
B|------------------------|------------------------|
G|------------------------|------------------------|
D|----7-----7-----7-----7-|----7-5-----------------|
A|0-----0-----0-----0-----|------------7-----5h7p5-|
E|------------------------|------------------------|

  1 + + 2 + + 3 + + 4 + +  1 + + 2 + + 3 + + 4 + +   
E|------------------------|--------------------------|
B|------------------------|--------------------------|
G|------------------------|--------------------------|
D|----7-----7-----7-----7-|----7-----7-----7-----5/7-|
A|4-----0-----------0-----|------0-----------0-------|
E|------------------------|--------------------------|

  1 + +   2 + + 3 + + 4 + +  1 + + 2 + + 3 + + 4 + +  
E|--------------------------|------------------------|
B|--------------------------|------------------------|
G|--------------------------|------------------------|
D|----5/7-----7-----7-----7-|----7-5-----------------|
A|--------0-----0-----0-----|------------7-----5h7p5-|
E|--------------------------|------------------------|

  1 + + 2 + + 3 + + 4 + +  1 + + 2 + + 3 + + 4 + + 
E|------------------------|------------------------|
B|------------------------|------------------------|
G|------------------------|------------------------|
D|----7-----7-----7-----7-|----7-----7-------------|
A|4-----0-----------0-----|------0-----------3b4---|
E|------------------------|------------------------|

Twin solo:

  1 + + 2 + + 3 + + 4 + +  1 + + 2 + + 3 + + 4 + +  
E|------------------------|------------------------|
B|------------------------|------------------------|
G|------------------------|----------5*----5-------|
D|7---7-5h7-7-----7-5h7-7-|----7-5h7---------7---7-|
A|------------------------|------------------------|
E|------------------------|------------------------|
                                     *bend 1/4 note  

  1 + + 2 + + 3 + + 4 + +  1 + + 2 + + 3 + + 4 + +  
E|------------------------|--------------------------|
B|------------------------|--------------------------|
G|------------------------|----------5*----5---------|
D|----7-5h7-7-----7-5h7-7-|----7-5h7---------7---5/7-|
A|------------------------|--------------------------|
E|------------------------|--------------------------|

  1 + + 2 + + 3 + + 4 + +  1 + + 2 + + 3 + + 4 + +  
E|------------------------|------------------------|
B|------------------------|------------------------|
G|------------------------|----------------------5*|
D|----7-5h7-7-----7-5h7-7-|----7-5h7-7-----7-5h7---|
A|------------------------|------------------------|
E|------------------------|------------------------|

                     Solo:
  1 + + 2 + + 3 + + 4 + +  1 + + 2 + + 3 + + 4 + +  
E|------------------------|------------------------|
B|------------------------|------------------------|
G|----------------------5-|7-----7b9---7p5---5---5-|
D|------7---7-----7-------|----------------7-------|
A|------------------------|------------------------|
E|------------------------|------------------------|

  1 + + 2 + + 3 + + 4 + +  1 + + 2 + + 3 + + 4 + +  
E|------------------------|------------------------|
B|------------------------|------------------------|
G|------5-----5p4---4-----|5-----5-----5p4---4-----|
D|----------------7-----7-|----------------7-----7-|
A|------------------------|------------------------|
E|------------------------|------------------------|

  1 + + 2 + + 3 + + 4 + +  1 + + 2 + + 3 + + 4 + +  
E|------------------------|------------------------|
B|------------------------|------------------------|
G|5-----5-----5p4---4-----|5p4---4-----5p4---4-----|

D|----------------7-----7-|----7-----7-----7-----7-|
A|------------------------|------------------------|
E|------------------------|------------------------|

  1 + + 2 + + 3 + + 4 + +  1 + + 2 + + 3 + + 4 + +  
E|----------------------5-|------------------------|
B|------------------------|----------------------8-|
G|7~~~~-7p5h7-5-----------|------7p5h7-5*----9-9---|
D|------------------7-----|------------------------|
A|------------------------|------------------------|
E|------------------------|------------------------|
                                        *bend 1/4 note

  1  + + 2 + + 3 + + 4  +  +   1  + +  2 +  + 3  + + 4 + +  
E|-------------10*---10b12-12r|10p8----8-------------------|
B|10-----10-------------------|-----10---10-8-10p8---------|
G|----------------------------|--------------------9-8---7-|
D|----------------------------|----------------------------|
A|----------------------------|----------------------------|
E|----------------------------|----------------------------|
                 *bend 1/4 note 

  1 + + 2 + + 3 + + 4 + +  1 + + 2 + + 3 + + 4 + +  
E|------------------------|------------------------|
B|------------------------|------------------------|
G|------7-----7p5---5-----|------5-----------------|
D|----------------7-----7-|7p5-7-------5-----7-----|
A|------------------------|----------7-------------|
E|------------------------|------------------------|

Chromatic riff

  1 + + 2 + + 3 + + 4 + +  1 + + 2 + + 3 + + 4 + +  
E|------------------------|------------------------|
B|------------------------|------------------------|
G|------------------------|------------------------|
D|----7-----7-7---7-7---7-|----7-5-----------------|
A|0-----------------------|------------7-----5h7p5-|
E|------------------------|------------------------|
            pm....... 

  1 + + 2 + + 3 + + 4 + +  1 + + 2 + + 3 + + 4 + +    
E|------------------------|--------------------------|
B|------------------------|--------------------------|
G|------------------------|--------------------------|
D|----7-----7-7---7-7---7-|----7-----------------5/7-|
A|4-----------0-----------|------0-----0-------------|
E|------------------------|--------------------------|

  1 + +   2 + + 3 + + 4 + +    1 + + 2 + + 3 + + 4 + +  
E|----------------------------|------------------------|
B|----------------------------|------------------------|
G|----------------------------|------------------------|
D|----5/7-----7-----7-----5/7-|----7-5-----------------|
A|--------------0-----0-------|------------7-----5h7p5-|
E|----------------------------|------------------------|

  1 + + 2 + + 3 + + 4 + +  1 + + 2 + + 3 + + 4 + +  
E|------------------------|------------------------|
B|------------------------|------------------------|
G|------------------------|------------------------|
D|----7-----------------7-|------7---------7-------|
A|4-----------------------|------------------------|
E|------------------------|------------------------|

Verse:
    1 + + 2 + + 3 + + 4 + +    
E||--------------------------||
B||*------------------------*|| 3x
G||--------------------------||
D||-----7-----7-----7-----7--||
A||*0-----0-----0-----0-----*||
E||--------------------------||

  1 + + 2 + + 3 + + 4 + +    1 + +   2 + + 3 + + 4 + +  
E|--------------------------|--------------------------|
B|--------------------------|--------------------------|
G|--------------------------|--------------------------|
D|----7-----7-----7-----5/7-|----5/7-----------------7-|
A|0-----0-----0-----0-------|--------------------------|
E|--------------------------|--------------------------|

  1 + + 2 + + 3 + + 4 + +  1 + + 2 + + 3 + + 4 + +  
E|------------------------|------------------------|
B|------------------------|------------------------|
G|------------------------|------------------------|
D|------5-----------------|----7-------7---------7-|
A|------------7-----5h7p5-|4-----------------------|
E|------------------------|------------------------|

  1 + + 2 + + 3 + + 4 + +  
E|------------------------|
B|------------------------|
G|------------------------|
D|------7---------7-------|
A|------------------------|
E|------------------------|

Repeat the whole thing to complete the verse but play the first
bar 7x instead of 3x and replace the last bar by:

  1 + + 2 + + 3 + + 4 + +  
E|------------------------|
B|------------------------|
G|------------------------|
D|------7-----------------|
A|------------0-----------|
E|------------------0-----|

Outro:

    1 + + 2 + + 3 + + 4 + +    
E||--------------------------||
B||*------------------------*|| 4x
G||--------------------------||
D||-----7-----7-----7-----7--||
A||*0-----0-----0-----0-----*||
E||--------------------------||

  1 + + 2 + + 3 + + 4 + +  1 + + 2   + + 3 + + 4 + +  
E|------------------------|--------------------------|
B|------------------------|--------------------------|
G|------------------5*----|7---5-7p5-7p5-7p5---------|
D|7-----7-----7p5h7-------|7-----------------7-7-----|
A|------------------------|--------------------------|
E|------------------------|--------------------------|
                     *bend 1/4 tone

  1 + + 2 + + 3 + + 4 + +  1 + + 2 + +   3 + + 4 + +  
E|5-----------------------|--------------------------|
B|5-----------------------|--------------------------|
G|------7-----5-----7---5-|7---5-7---7b9r7p5-------7/|
D|------------------------|------------------7-7-----|
A|------------------------|--------------------------|
E|------------------------|--------------------------|

  1 + + 2  + + 3 + + 4 + +  1 + + 2  + + 3  + + 4 + +  
E|-------------------------|--------------------------|
B|----8-10-----10----8\----|----8-10-----10-----------|
G|9----------------------7/|9-----------------------7/|
D|-------------------------|--------------------------|
A|-------------------------|--------------------------|
E|-------------------------|--------------------------|

  1 + + 2  + + 3 + + 4  + +  1 + + 2 + + 3     + + 4 + +   
E|--------------------------|------------10b12---------12r|
B|----8-10---------8-10-----|----8-8----------------------|
G|9------------7/9--------7/|9----------------------------|
D|--------------------------|-----------------------------|
A|--------------------------|-----------------------------|
E|--------------------------|-----------------------------|

  1  + +  2 + + 3 + + 4 + +  1 + + 2  + + 3  + + 4 + +      
E|10p8----8-----8-----8---8-|------10----------8-----10b12r|
B|-----10-------------------|------10---8-10---------------|
G|--------------------------|------------------------------|
D|--------------------------|------------------------------|
A|--------------------------|------------------------------|
E|--------------------------|------------------------------|

  1  + +  2 + + 3 + + 4 + +  1 + + 2  + + 3  + + 4 + +      
E|10p8----8-----8-----8-----|8-----10----------8-----10b12r|
B|-----10-------------------|------10---8-10---------------|
G|--------------------------|------------------------------|
D|--------------------------|------------------------------|
A|--------------------------|------------------------------|
E|--------------------------|------------------------------|

  1  + +  2 + + 3  + + 4 + +  1 + +   2 + + 3 + + 4 + +  
E|10p8----8------------------|------------------------5-|
B|-----10-------10p8---8-----|------------------------5-|
G|--------------9----9-------|9p8-8\7-7-----5h7p5h7-----|
D|---------------------------|--------------------------|
A|---------------------------|--------------------------|
E|---------------------------|--------------------------|

  1 + + 2 + + 3 + + 4 + +  1   + + 2 + + 3 + + 4 + +  
E|5-----3-----------------|--------------------------|
B|5-----3-----------------|--------------------------|
G|------------5b7r5---5-7-|7b9-----7---5-7p5-7-----7/|
D|-----------------/7-----|--------------------7-----|
A|------------------------|--------------------------|
E|------------------------|--------------------------|

  1 + + 2 + + 3 + + 4 + +  1 + + 2 + + 3 + + 4 + +  
E|------------------------|------------------------|
B|----8-------------------|----8-8-----------------|
G|9-----9-----9-----9-----|9-----------9-----9-----|
D|------------9-----9-----|9-----------------------|
A|------------------------|------------------------|
E|------------------------|------------------------|

  1 + + 2  +  + 3 + +  4 + +   1  + + 2 + + 3 + + 4 + +  
E|-----/10-10-----8h10---8----|-------------------------|
B|-------------------------10-|10p8---8-----------------|
G|9---------------------------|-----9-----9-8-----5h7p5-|
D|----------------------------|-------------------------|
A|----------------------------|-------------------------|
E|----------------------------|-------------------------|
Band stops! Free time.....

  1 + + 2 + + 3   + + 4 + +  1 + + 2 + + 3 + + 4 + +  
E|--------------------------|------------------------|
B|--------------------------|------------------------|
G|------------5h7p5-7-x-7b9-|------7p5---5*----------|
D|7-----7-------------------|----------7-------7---5-|
A|--------------------------|------------------------|
E|--------------------------|------------------------|
                                          *bend 1/4 note

  1 + + 2 + + 3 + + 4 + +  1 + + 2 + + 3 + + 4 + +  
E|------------------------|------------------------|
B|------------------------|------------------------|
G|------------------------|------------------------|
D|------------------------|------------------------|
A|7-----7-----7-----7-----|7-----7-----7---6---5---|
E|------------------------|------------------------|

  1 + + 2 + + 3 + + 4 + +   
E|------------------------||
B|------------------------||
G|------------------------||
D|------5-----------------||
A|4-----------------------||
E|------------------------||


Rick's part
===========

For Rick's part I've only made an easy to follow canvas completed
with a few bars tab at the end. Were I indicate A5/A6, you have to
play the A5/A6 pattern (the same for D5/D6 and E5/E6) as follows:

    1 + + 2 + + 3 + + 4 + +  
E||--------------------------||
B||*------------------------*||
G||--------------------------||
D||--------------------------||
A||*7---7-9---7-7---7-9---7-*||
E||-5---5-5---5-5---5-5---5--||
    d   u d   u d   u d   u     with a strong downstroke
    .     .     .     .         (. = short)

Intro           |Same as Francis' part |
Verse 1         |same as Francis' part | 
Chromatic riff  |same as Francis' part |
                |A5 rings through 2 bars|
                |A5/A6   | 6 x

Verse 2         |A5/A6   | 28x
                |D5/D6   | 4x
                |A5/A6   | 4x
                |E5/E6   | 2x
Chromatic riff  |2 bars  |
                |A5/A6   | 8x
Twin solo       |A5/A6   | 8x
Solo            |D5/D6   | 4x
                |A5/A6   | 4x
                |E5/E6   | 2x
Chromatic riff  |2 bars  |
                |A5/A6   | 8x
'Verse 3'       |same as Francis' part |
Outro           |A5/A6   | 10x

  1 + + 2 + + 3 + + 4 + +  1 + + 2 + + 3 + + 4 + +  
E|------------------------|------------------------|
B|------------------------|------------------------|
G|------------------------|------------------------|
D|7-----5-----4-----------|------------------------|
A|------------------7-----|5-----4-----3-----4-----|
E|------------------------|------------------------|

                |D5/D6   | 4x
                |A5/A6   | 2x
                
  1 + + 2 + + 3 + + 4 + +  1 + + 2 + + 3 + + 4 + +  
E|------------------------|------------------------|
B|------------------------|------------------------|
G|------------------------|------------------------|
D|7-----5-----4-----------|------------------------|
A|------------------7-----|5-----4-----5-----6-----|
E|------------------------|------------------------|

                |E5/E6   | 2x

  1 + + 2 + + 3 + + 4 + +  1 + + 2 + + 3 + + 4 + +  
E|------------------------|------------------------|
B|------------------------|------------------------|
G|------------------------|------------------------|


D|7-----------------------|------------------------|
A|5---------------------3/|5-----------------------|
E|------------------------|------8-----7-----6-----|

                |A5/A6   | 2x

  1 + + 2 + + 3 + + 4 + +  1 + + 2 + + 3 + + 4 + +  
E|------------------------|------------------------|
B|------------------------|------------------------|
G|------------------------|------------------------|
D|------------------------|------------------------|
A|7-----7-----7-----7-----|7-----7-----7---6---5---|
E|------------------------|------------------------|


  1 + + 2 + + 3 + + 4 + +   
E|------------------------||
B|------------------------||
G|------------------------||
D|------5-----------------||
A|4-----------------------||
E|------------------------||


Third/Fourth guitar:
====================

As well as Francis' part as Rick's backing have been doubled.
So sometimes you can hear three or four guitars. The only part
that has not been written out yet is the uppervoice of the 
twinsolo (which is exactly an octave higher than Francis' part)
in the twinsolo:

  1  + +  2 +  +  3 + +  4 +  +   1 + +  2 +  + 3 + + 4  + +   
E|-------------------------------|------------8*----8---------|
B|10---10-8h10-10-----10-8h10-10-|----10-8h10---------10---10-|
G|-------------------------------|----------------------------|
D|-------------------------------|----------------------------|
A|-------------------------------|----------------------------|
E|-------------------------------|----------------------------|
                                              *bend 1/4 note

  1 + +  2 +  +  3 + +  4 +  +   1 + +  2 +  + 3 + + 4  + +     
E|------------------------------|------------8*----8-----------|
B|----10-8h10-10-----10-8h10-10-|----10-8h10---------10---8/10-|
G|------------------------------|------------------------------|
D|------------------------------|------------------------------|
A|------------------------------|------------------------------|
E|------------------------------|------------------------------|

  1 + +  2 +  +  3 + +  4 +  +   1 + +  2 +  +  3 + +  4 +  +  
E|------------------------------|---------------------------8*|
B|----10-8h10-10-----10-8h10-10-|----10-8h10-10-----10-8h10---|
G|------------------------------|-----------------------------|
D|------------------------------|-----------------------------|
A|------------------------------|-----------------------------|
E|------------------------------|-----------------------------|

  1 + +  2 +  +  3 + +  4 +  +   1 + +  2  + +  3  + +  4  + +      
E|------------------------------|------------------------------|
B|----10-8h10-10-----10-8h10-10-|----10-10---10-10---10-10-----|
G|------------------------------|------------------------------|
D|------------------------------|------------------------------|
A|------------------------------|------------------------------|
E|------------------------------|------------------------------|
Suggest correction
Creating personal tab
Creating personal tab
You can edit any tab online and save it as your Personal.

You can edit, replace or remove any tab part or add personal notes – all changes will be seen only by you.

Personal tabs can be accessed anytime from any device, even offline.
Learn more »
Give kudos to tab author, rate the tab!
1 2 3 4 5
comments
print report bad tab
guest
You may want to rate the tab now too:
select rating
Wanna post a correction for this tab? Suggest correction