Oops, an error
Loading. Please wait.

Whatever You Want Tab

version 3
version 3

Whole song

Interactive

115,591 views 321 this week
7 commentsread comments
1 2 3 4 5
x 27
add to favorites
×
Save as Personal and add changes to this tab that will be seen only by you. Learn more ›
×
You can save this tab as Personal to edit and correct it or add notes. All changes will be seen only by you. Learn more »
save as personal
new!
launch autoscroll
font size
0
reset
how to read this tab
guitar tuner
backing track
0:00
0:00
Autoscroll
slow
fast
+/-
esc
set tempo
stop
[Intro]

e|-3-----3-------------3-------2-----2-----3-----2-----|
B|-1-1-----1---0h1p0-----0-------3-----3-----3-----3---|
G|-----0-----0-------0-----0-------2-----2-----2-----2-|  X 2
D|---------------------------0-------------------------|
A|-----------------------------------------------------|
D|-----------------------------------------------------|

e|-----------------------------------|
B|---3-----3-----3-----3-----------7-|
G|-----0-----0-----0-----0---------7-|
D|---------------------------------7-|
A|-3-----3-----2-----2-----------5-5-|
D|-------------------------3p2-0-----|

e|--------------|      e|--------------|
B|--------------|      B|--------------|
G|------------5-|      G|--------------|
D|-0-00-00-00-5-|  X 7 D|-0-00-00------|
A|--------------|      A|--------------|
D|--------------|      D|--------------|


[Riff 1]

e|----------------------------------------------------------------------------------|
B|-8-8-7-7-7----7---7--8-8-7-7-7----7---7--8-8-7-7-7--8-8-7-7-7--8-8-7-7-7----7---7-|
G|-7-7-7-7-7----7---7--7-7-7-7-7----7---7--7-7-7-7-7--7-7-7-7-7--7-7-7-7-7----7---7-|
D|-9-9-7-7-7--7-7-7-7--9-9-7-7-7--7-7-7-7--9-9-7-7-7--9-9-7-7-7--7-7-7-7-7--7-7-7-7-|
A|----------------------------------------------------------------------------------|
E|----------------------------------------------------------------------------------|

e|----------------------------------------------------------------------------------|
B|-8-8-7-7-2---2---2--8-8-7-7-10--8-8-7-7-7--8-8-7-7-7--8-8-7-7-7----7---7----------|
G|-7-7-7-7-2---2---2--7-7-7-7-9---7-7-7-7-7--7-7-7-7-7--7-7-7-7-7----7---7----------|
D|-9-9-7-7-2---2---2--9-9-7-7-11--9-9-7-7-7--9-9-7-7-7--9-9-7-7-7--7-7-7-7----------|
A|---------0-0-0-0-0----------------------------------------------------------------|
E|----------------------------------------------------------------------------------|
 

[Riff 2]

e|----------------------------------------------------------------------------------|
B|-8-8-7-7-7----7---7--8-8-7-7-7----7---7--8-8-7-7-7--8-8-7-7-7--8-8-7-7-7----7---7-|
G|-7-7-7-7-7----7---7--7-7-7-7-7----7---7--7-7-7-7-7--7-7-7-7-7--7-7-7-7-7----7---7-|
D|-9-9-7-7-7--7-7-7-7--9-9-7-7-7--7-7-7-7--9-9-7-7-7--9-9-7-7-7--7-7-7-7-7--7-7-7-7-|
A|----------------------------------------------------------------------------------|
E|----------------------------------------------------------------------------------|

e|----------------------------------------------------------------------------------|
B|-8-8-7-7-2--------8-8-7-7-10--8-8-7-7-7----7---7--8-8-7-7-7----7---7--------------|
G|-7-7-7-7-2-----2--7-7-7-7-9---7-7-7-7-7----7---7--7-7-7-7-7----7---7--------------|
D|-9-9-7-7-2-5-4-2--9-9-7-7-11--9-9-7-7-7--7-7-7-7--9-9-7-7-7--7-7-7-7--------------|
A|---------0------------------------------------------------------------------------|
E|----------------------------------------------------------------------------------|


[Riff 3]

e|-------------------------------------------------------------------------------------|
B|-------------------------------------------------------------------------------------|
G|-0h2-4-2-4--0h2-4-2-4--0h2-4-2-4--0h2-4---------------------------0h2-4-2-4--0h2-4-2-| x2
D|-0---0-0-0--0---0-0-0--0---0-0-0--0---0-----0h2-5-4-2--0h2-5-4-2--0---0-0-0--0---0-0-|
A|--------------------------------------------0---0-0-0--0---0-0-0---------------------|
E|----------------------------------------2-3------------------------------------------|


[Riff 4]

e|------13--8---------10--------8---------10-----------|
B|-----13---8---------10--------10--------10-----------|
G|----14----9---------11--------10--------11-----------|
D|---15-----10--------12--------10--------12-----------|
A|--15------10--12-12-12--12-12-8---12-12-12--12-12-12-|
E|-13-------8---10-10-10--10-10-----10-10-10--10-10-10-|

e|------13-------------------------------------------|
B|-----13-----------------------------------/10-10-8-|
G|----14--------9-9-9-9-9-9-9-9-9-9-9-9-9---/9--9--9-|
D|---15----10-9-9-9-9-9-9-9-9-9-9-9-9-9-9-7----------|
A|--15-----10-9-7-7-7-7-7-7-7-7-7-7-7-7-7-7----------|
E|-13------8--7---------------------------5----------|


Repeat Riff2

[Riff 2]

e|----------------------------------------------------------------------------------|
B|-8-8-7-7-7----7---7--8-8-7-7-7----7---7--8-8-7-7-7--8-8-7-7-7--8-8-7-7-7----7---7-|
G|-7-7-7-7-7----7---7--7-7-7-7-7----7---7--7-7-7-7-7--7-7-7-7-7--7-7-7-7-7----7---7-|
D|-9-9-7-7-7--7-7-7-7--9-9-7-7-7--7-7-7-7--9-9-7-7-7--9-9-7-7-7--7-7-7-7-7--7-7-7-7-|
A|----------------------------------------------------------------------------------|
E|----------------------------------------------------------------------------------|

e|----------------------------------------------------------------------------------|
B|-8-8-7-7-2--------8-8-7-7-10--8-8-7-7-7----7---7--8-8-7-7-7----7---7--------------|
G|-7-7-7-7-2-----2--7-7-7-7-9---7-7-7-7-7----7---7--7-7-7-7-7----7---7--------------|
D|-9-9-7-7-2-5-4-2--9-9-7-7-11--9-9-7-7-7--7-7-7-7--9-9-7-7-7--7-7-7-7--------------|
A|---------0------------------------------------------------------------------------|
E|----------------------------------------------------------------------------------|


[Solo]

(F-F-F-F-G-C-F-E-A)

  F
e|--------------------------------------13-----------13----------------|
B|-----------------------------------13-----------13-------------------|
G|-------13-13---------13-13--15(17)-------15(17)-------15(17)15-13----|
D|-13-15---------13-15----------------------------------------------15-|
A|---------------------------------------------------------------------|
E|---------------------------------------------------------------------|

  F                                    G
e|-----------------------------------------------15-----------15----------------|
B|--------------------------------------------15-----------15-------------------|
G|-------------------------------------17(19)-------17(19)-------17(19)17-15----|
D|-------13-13---------13-13-------15----------------------------------------17-|
A|-13-15---------13-15-------13/15----------------------------------------------|
E|------------------------------------------------------------------------------|

  C                         F              E                               A
e|-----8----------------------------------------------13-12-------------------------------|
B|---8---11-10-8--------------------------------------------15-13(15)13-12--15(17)-15(17)-|
G|/9-------------11-10-8-----------------10-----12-14-------------------------------------|
D|-----------------------10-------7-8-10-10-/14-------------------------------------------|
A|---------------------------8--8---------------------------------------------------------|
E|----------------------------------------------------------------------------------------|

Repeat Riff3


[Riff 3]

e|-------------------------------------------------------------------------------------|
B|-------------------------------------------------------------------------------------|
G|-0h2-4-2-4--0h2-4-2-4--0h2-4-2-4--0h2-4---------------------------0h2-4-2-4--0h2-4-2-|  
D|-0---0-0-0--0---0-0-0--0---0-0-0--0---0-----0h2-5-4-2--0h2-5-4-2--0---0-0-0--0---0-0-|
A|--------------------------------------------0---0-0-0--0---0-0-0---------------------|
E|----------------------------------------2-3------------------------------------------|

Repeat Riff4


[Riff 4]

e|------13--8---------10--------8---------10-----------|
B|-----13---8---------10--------10--------10-----------|
G|----14----9---------11--------10--------11-----------|
D|---15-----10--------12--------10--------12-----------|
A|--15------10--12-12-12--12-12-8---12-12-12--12-12-12-|
E|-13-------8---10-10-10--10-10-----10-10-10--10-10-10-|

e|------13-------------------------------------------|
B|-----13-----------------------------------/10-10-8-|
G|----14--------9-9-9-9-9-9-9-9-9-9-9-9-9---/9--9--9-|
D|---15----10-9-9-9-9-9-9-9-9-9-9-9-9-9-9-7----------|
A|--15-----10-9-7-7-7-7-7-7-7-7-7-7-7-7-7-7----------|
E|-13------8--7---------------------------5----------|


Repeat Riff2 (partly !)

e|------------------------------------------------|
B|-8-8-7-7-7--6-6-5-5-5--1-1-0-0-0--2-2-2-2-2-2-2-|
G|-7-7-7-7-7--5-5-5-5-5--0-0-0-0-0--2-2-2-2-2-2-2-|
D|-9-9-7-7-7--7-7-5-5-5--2-2-0-0-0--2-2-2-2-2-2-2-|
A|----------------------------------0-0-0-0-0-0-0-|
E|------------------------------------------------|

Repeat Riff1 (with variation on A (G-F#-E)) twice, fade out...



************************************

| (n)  Ghost note
| h    Hammer-on
| p    Pull-off
| /    Slide up

************************************
Suggest correction
comments
print report bad tab
7 comments total. Showing first comments.
0 reply
MoonDragon 10 Jun 11, 2005 08:00 PM

If you watch the video they dont switch guitars after the intro, maybe the one who plays the intro continues in D-Drop and the other starts with e-tuning two bars lower?

0 reply
Dominic_91 31 May 06, 2006 12:16 AM

damn a Tuned my Guitar But I Dont Need it..:P
Okii Intro Is Right

0 reply
Greg Harper 3,922 Aug 16, 2006 07:04 AM

Idiots. Of course there are two guitars

guest
Wanna post a correction for this tab? Suggest correction