Oops, an error
Loading. Please wait.

Stuck In The Middle With You Chords

version 1
version 1

Whole song

Interactive

688,409 views 2,127 this week
15 commentsread comments
1 2 3 4 5
x 375
add to favorites
launch autoscroll
font size
0
reset
transpose
0
reset
simplify chords
display chords
guitar tuner
Autoscroll
slow
fast
+/-
esc
set tempo
stop
Help us to improve Ultimate-Guitar.com Take our survey!
×
Author
Difficulty
intermediate
           *Stuck In The Middle With You (Gerry Rafferty, Joe Egan)*

[Intro]

D  Am7  A7sus4  C       D  Am7  A7sus4  C         D


[Verse]

D             
Well I don't know why I came here tonight,
D
I got the feeling that something ain't right,
       G7
I'm so scared in case I fall off my chair,
        D
And I'm wondering how I'll get down the stairs,
A
Clowns to the left of me,
C             G
Jokers to the right, here I am,
D
  Stuck in the middle with you.


[Chorus]

D
Yes I'm stuck in the middle with you,
D
And I'm wondering what it is I should do,
        G7
It's so hard to keep this smile from my face,
          D
Losing control, yeah, I'm all over the place,
A
Clowns to the left of me,
C             G
Jokers to the right, here I am,
D
  Stuck in the middle with you.


[Bridge]

         G7
Well you started out with nothing,
                                              D
And you're proud that you're a self made man,
         G7
And your friends, they all come crawlin, Slap you on the back and say,
D          G7
Please.... Please.....

Slide Guitar:
|---------5--------------5--------------5--------------5-----|
|-7----7-------5--7\5/7---------7----7-------5--7\5/7--------|
|-7----7------------------------7----7-----------------------|
|------------------------------------------------------------|
|------------------------------------------------------------|
|------------------------------------------------------------|


[Verse]

D
Trying to make some sense of it all,
D
But I can see that it makes no sense at all,
      G7
Is it cool to go to sleep on the floor,
               D
'Cause I don't think that I can take anymore
A
Clowns to the left of me,
C             G
Jokers to the right, here I am,
D
  Stuck in the middle with you.

D
Well I don't know why I came here tonight,
          D
I got the feeling that something ain't right,
       G7
I'm so scared in case I fall off my chair,
        D
And I'm wondering how I'll get down the stairs,
A
Clowns to the left of me,
C             G
Jokers to the right, here I am,
D
  Stuck in the middle with you.
       D
Yes I'm stuck in the middle with you,
          D                             
Here I am, Stuck in the middle with you.

|-2--2--------|
|-3--3--------|
|-2--2--------|
|-0--0--------|
|-------------|
|-------------|
Suggest correction
comments
print report bad tab
15 comments total. Showing first comments.
0 reply
thunderfvck 10 Aug 08, 2008 12:47 PM

How is the intro being played? It doesn't sound right to go from a lower (Am7) to a higher (Amsus4) note. It should be the other way around? Which also doesn't sound right...

+3 reply
tombryan87 20 Nov 13, 2008 12:14 PM

This song is played orignally in Open D tuning and is based round the D where you just strum the 6 strings open and use palm mutes.

I will put a tab on soon for it

+1 reply
swanker 10 Jun 09, 2009 11:49 AM

Intro
E|---------------------------------------------------------------
B|----7-7--5-3-1-1-1-0-1----------------------------------------------
G|----7-7--5-4-2-2-2-0-2----------------------------------------------
D|----0-0--0-0-0-0-0-0-0----------------------------------------------
A|-------------------------------------------------------------------
E|-------------------------------------------------------------------

this is from another tab, pretty much i just changed it a bit to make it work in standard tuning, but i think it sounds much better for the intro its kind of tricky but, you shouldnt have to much trouble, and good tab here, man

guest
You may want to rate the tab now too:
select rating
Wanna post a correction for this tab? Suggest correction