Oops, an error
Loading. Please wait.

Stuck In The Middle With You Tab

version 3
version 3

Whole song

Interactive

81,066 views 447 this week
4 commentsread comments
1 2 3 4 5
excellent!
x 23
add to favorites
launch autoscroll
font size
0
reset
how to read this tab
guitar tuner
Autoscroll
slow
fast
+/-
esc
set tempo
stop
Help us to improve Ultimate-Guitar.com Take our survey!
×
Author
Difficulty
intermediate
-------------------------------------------------------------------------------
                             STUCK IN THE MIDDLE WITH YOU - Stealers Wheel
-------------------------------------------------------------------------------
Tabbed by: Hunter Harpole
E-mail: dartjuice@gmail.com

I am making this tab because everyone so far has it wrong.  Even the how-to videos on 
youtube all have a couple chords that are off.  So this is for all who want to play this 
song correctly.

Tuning: Standard


Chords used:

    D   G7   A7  C   G A7sus4
e|---2---1---0---0---3---3------|
B|---3---0---2---1---0---3------|
G|---2---0---0---0---0---0------|
D|---0---0---2---2---0---2------|
A|---0---2---0---3---2---0------|
E|-------3-----------3----------|


[Intro]

e|-2-2-0-0-2-----|
B|-3-3-1-0-1-----|
G|-2-2-0-0-2-----|  X2
D|-----2-2-------|
A|-----0-0-------|
E|---------------|


[Verse]

D
Well, I don't know why I came here tonight.
D
I got a feeling that something ain't right.
G7
I'm so scared in case I fall off my chair.
D
and I'm wondering how I'll get down those stairs.
A7                     C            G          D
Clowns to left of me, jokers to the right, here am I stuck in the middle with you.


[Chorus]

           G                                                                 D
Well, you started off with nothing and you're proud that you're a self-made man.
           G                                                              D    A7sus4
And your friends they all come crawling, slap you on the back and say, please, please.


[Slide Guitar Fills]

e|----------5----------5---------------------10-------10--------------10----------|
B|-6/7-6/7----6/7/6/7----6/7----11/12-11/12----11/12----12-----11/12----12--------|
G|-6/7-6/7----6/7/6/7----6/7----11/12-11/12----11/12-------12--11/12-------12-----|
D|--------------------------------------------------------------------------------|
A|--------------------------------------------------------------------------------|
E|--------------------------------------------------------------------------------|

e|--------12-------12-------10---------10--------|
B|-13/14-----13/14----11/12-----11/12-----12-----|
G|-13/14-----13/14----11/12-----11/12-----12-----|
D|-----------------------------------------------|
A|-----------------------------------------------|
E|-----------------------------------------------|


************************************

| /  Slide up

************************************
Suggest correction
What's this?
You can suggest a correction to this tab. Community and Mods will review your correction and vote to approve or reject it.
comments
print report bad tab
4 comments total. Showing first comments.
0 reply
BraydenLeske 11 wrote on December 1 2014, 05:05 am

Intro:

E --------------
B -3-3--1-0--1--
G -2-2--2-2--2--
D -0-0--0-0--0--
A --------------
E --------------

0 reply
dartjuice 287 wrote on January 9 2015, 09:56 pm

No Brayden. I had it right.

0 reply
aeroflight13 11 wrote on May 27 2015, 09:31 am

INTRO:
e|-2-2-0-0-2-2-2-2-2-2-|
B|-3-3-1-0-1-1-1-0-1-0-|
G|-2-2-0-0-2-2-2-2-2-2-| X2
D|-----2-2-------------|
A|-----0-0-------------|
E|---------------------|

I think your intro is right but isn't it missing the extra bit at the end here?

guest
You may want to rate the tab now too:
select rating
Please do not post tabs as comments. Select "correction" instead!