Oops, an error
Loading. Please wait.

Brass Goggles bass

6,441 views 24 this week
3 commentsread comments
1 2 3 4 5
x 5
add to favorites
×
Save as Personal and add changes to this tab that will be seen only by you. Learn more ›
×
You can save this tab as Personal to edit and correct it or add notes. All changes will be seen only by you. Learn more »
launch autoscroll
font size
0
reset
guitar tuner
edit
Autoscroll
slow
fast
+/-
esc
set tempo
stop
Difficulty
intermediate
This is how I play the song, sorry for any mistakes :)

\-Slide down
/-Slide up
h-Hammer on
p-Pull off

"Come with me I'll show you how to..."
G|--------------------------------|--------------------------------|
D|--------------------------------|--------------------------------|
A|--------------------------------|--------------------------------|
E|5-------3-------1-------0-------|5-------3-------------1-0---3/--|

G|--------------------------------|--------------------------------|
D|--------------------------------|--------------------------------|
A|--------------------------------|--------------------------------|
E|5-------3-------1-------0-------|5-------3-------1--------0------|

"Colonel Walter was shocked..."
G|--------------------------------|--------------------------------|
D|--------------------------------|-------------------------10h12-12-10h12-12|
A|------------------------5-------|--------------------------------|
E|5-------7-------8---------------|5-------7-------8---------------|
The twiddle at the end is most easily done with a pick, but because I much
prefer finger style, I usually slap it to get the right timing. You Hit,
hammer, hit, hit, hammer hit. I usually then slide back down the string to
play the A on the E string, but if you find it hard to slide back down you
could always hit the open A instead.
G|--------------------------------|--------------------------------|
D|--------------------------------|--------------------------------|
A|------------------------5-------|-------------------------5------|
E|5-------7-------8---------------|5-------7-------8---------------|

"Now the war is passing over..."
G|--------------------------------|--------------------------------|
D|--------------------------------|-----------------5-4--2---------|
A|5---------------5-----------5\\\|3-----------------------5--3-2-5|
E|--------5---------------5-------|--------3-----------------------|
"What is life?..."
G|--------------------------------|--------------------------------|
D|--------------------------------|--------------------------------|
A|5--5--5---------5--5--5---------|5--5--3-5--5--3-5--5--3-5--5-3-5|
E|--------------------------------|--------------------------------|
                                                   "One two three..."
G|--------------------------------|--------------------------------|
D|--------------------------------|--------------------------------|
A|--------------------------------|--------------------------------|
E|0---------------3---------------|7-------------------------------|
"La da da da da..."
G|---------------------------------- |--------------------------------|
D|---------------------------------- |----7\------5------5--------2--2|
A|----3---5---5h7p5\----0---3---3h5p3|5-------3-------3-3-2--------3--|
E|5-----------------1--------------- |--------------------------------|

G|---------------------------------- |--------------------------------|
D|---------------------------------- |--------------------------------|
A|----3---5---5h7p5\----0---3---3h5p3|5h7p5-3h5p3---------------------|
E|5-----------------1--------------- |------------5h7p5-3h5p3-1--1-0--|

And repeat for the next verse. Everything after that uses one of these
patterns so just listen out for which one to use where :)

            
            
Suggest correction
Creating personal tab
Creating personal tab
You can edit any tab online and save it as your Personal.

You can edit, replace or remove any tab part or add personal notes – all changes will be seen only by you.

Personal tabs can be accessed anytime from any device, even offline.
Learn more »
comments
print report bad tab
3 comments total.
0 reply
deltron13 51 Apr 09, 2014 04:31 PM

i love exactly this..when a not so well known band has a great tab on here...cudos

+2 reply
sirlesa 52 Jun 04, 2014 01:37 AM

i agree, great tab for a band that doesnt get as much attention as it deserves

0 reply
deltron13 51 Jun 07, 2014 06:09 PM

too true, they deserve more attention

guest
Wanna post a correction for this tab? Suggest correction