Oops, an error
Loading. Please wait.

Dream Machine Chords

172 views 3 this week
2 commentsread comments
1 2 3 4 5
2 more votes to show rating
add to favorites
launch autoscroll
font size
0
reset
transpose
0
reset
display chords
guitar tuner
×
Best way to learn
"Dream Machine"
Autoscroll
slow
fast
+/-
esc
set tempo
stop
Author
Difficulty
  follow
intermediate
About this tab version
This is the first version of this tab. It also contains the solo tab. Was this info helpful? Yes No
Tab#1
(you can play this in the final chorus)

    C              C               Em             Em
e|---------------------------------------------------------------|
B|--------1---1----------1---1-----------0---0----------0---0----|
G|------0---0---0------0---0---0-------0---0---0------0---0---0--|
D|----2--------------2---------------2--------------2------------|
A|--3--------------3---------------2--------------2--------------|
E|---------------------------------------------------------------|

    Am             Am              G              G
e|---------------------------------------------------------------|
B|--------1---1----------1---1-----------0---0----------0---0----|
G|------2---2---2------2---2---2-------0---0---0------0---0---0--|
D|----2--------------2---------------0--------------0------------|
A|--0--------------0---------------2--------------2--------------|
E|---------------------------------------------------------------|


[Intro]

No chords                  F         F       C
I can't see, I can't see, across the crowds
C
A sea of clouds and unseen dreams
C       F         F     C
They're screaming loud
C
But how they dance on second glance
C       F       F     No chords
they're smiling proud
                      C
But they are all left unseen


[Interlude]

              C
La ta-dah-dah-dee
              F
La ta-dah-dah-dee-hee


[Verse 1]

C                                F
    Take a bow, take a bow, it's over now
C                                F
    Run and how run and how. Now we must flee
C                                                          F
    The electric queen; she sparked and glowed on her many screens
   F         Em           Am        F
At night she breathes. At night she lives
    F    Em       F
But only when she dreams


[Chorus]

             C    Em    Am     G
She's just a dreeeeeeeeeeeam machine
        C    Em    Am     G
If only dreeeeeeeeeeeam machine


[Verse 2]

C                                             F
The silence breeds, the silence breeds, don't tear the air
C                                        F
No silly songs or darkening thoughts, no don't you dare
C
But here they come and here they'll stay,
                           F
multiplying till our dying day
No chords          C
Who needs sleep anyway?


[Chorus]

             C    Em    Am     G
Build them a dreeeeeeeeeeeam machine
        C    Em    Am     G
If only dreeeeeeeeeeeam machine


[Interlude]

                C
Yah-dah-dah-dah-dee
                G
Yah-dah-dah-dah-dee
                F
Yah-dah-dah-dah-dee
                G
Yah-dah-dah-dah-dee


[Solo]

e|------------------------------|-------------------------------|
B|------------------------------|-------------------------------|
G|------------------------------|-------------------------------|
D|----------0-0-0-0-0-----------|-------------------------------|
A|------0-3-----------3-0-3-3-3-|------0-3-5-5-5-5-5s7-3-3-3-3--|
E|--0-3-------------------------|--0-3--------------------------|

e|------------------------------|-------------------------------|
B|------------------------------|-------------------------------|
G|------------------------------|-------------------------------|
D|------0-2-3-3-3-3-3s5-3-3-2---|--3-3-3-3-3s5-5-5s7-7s9--------|
A|--0-3-------------------------|-------------------------------|
E|------------------------------|-------------------------------|

e|--------------------------------------------------------------|
B|------1-3-----1-3-3s5-3-----1-3-3-3s5-5-3-0-------------------|
G|--0-2-----0-2-----------0-2-----------------------------------|
D|--------------------------------------------------------------|
A|--------------------------------------------------------------|
E|--------------------------------------------------------------|

e|----------1-1-5-8-10-8---------8-10------8-10------8-10-10s12-12-|
B|----0-1-3-----------------8-10------8-10------8-10---------------|
G|--2--------------------------------------------------------------|
D|-----------------------------------------------------------------|
A|-----------------------------------------------------------------|
E|-----------------------------------------------------------------|


[Verse 3]

C                      F
Walk away, walk away into the night
C                                     F
A sea of fright and unseen fiends who want a bite
C                                           F
Don't let them in, where have they been? It isn't right
     F         Em           Am        F
Just take your breaths. For now, it's light.
    F      Em      F                  G    No chords
The sun is up. The curtain's 'bout to rise


[Chorus]

(you can also play tab #1 twice here)

C    Em    Am     G
Dreeeeeeeeeeeam Machine

If only
C    Em    Am     G
Dreeeeeeeeeeeam Machine
   C
If only



************************************

| s  slide

************************************
Suggest correction
Give kudos to tab author, rate the tab!
1 2 3 4 5
comments
print report bad tab
2 comments total.
0 reply
kayleydr 56 Sep 12, 2016 12:04 PM

Brilliant tab! Very accurate and sounded great.

guest
You may want to rate the tab now too:
select rating
Wanna post a correction for this tab? Suggest correction