Oops, an error
Loading. Please wait.

Heist Ho tab

112 views 1 this week
no commentswrite comment
1 2 3 4 5
2 more votes to show rating
add to favorites
×
Save as Personal and add changes to this tab that will be seen only by you. Learn more ›
×
You can save this tab as Personal to edit and correct it or add notes. All changes will be seen only by you. Learn more »
launch autoscroll
font size
0
reset
how to read this tab
guitar tuner
edit
Autoscroll
slow
fast
+/-
esc
set tempo
stop
About this tab version
Tried to get every note exactly as the song sounds, no simplification or added notes. The timing might be confusing with the spacing of the tabs but if you listen to it you'll get the hang of it. Was this info helpful? Yes No
Please note that the tuning is one half step down, it's possible to play with
standard tuning but it won't be in the same key as the original song.

D#|---------------------------------------------------------------------------------|
A#|---------------------------------------------------------------------------------|
F#|---------------------------------------------------------------------------------|
C#|-5/7-9------------------7-9-7-7-7-9--------------------------------7-9-----------|
G#|-------9-7-9-9-9---------------------9------9~--9-9-9b10--7---7-7-5-----9--------|
D#|-----------------7-7-7------------------------------------------------------7----|

D#|---------------------------------------------------------7--------7---------------|
A#|--------------------------------------------6/7-------10---7---10---7-------------|
F#|----------------------6-7-5-7/9---9-7-9-7-9-------7-9--------9-------10-----------|
C#|--------------9-9-7-9-------------------------------------------------------------|
G#|--9-9-9-----------------------------------------------------------------9-9-9-----|
D#|--------7-7-7-----------------------------------------------------------------7-7-|

D#|--------------------------------------------------------------------------------|
A#|--------------------------------------------------------------------------------|
F#|------------------------------------------------------------------9---6-6-------|
C#|--------9-9-7-7-7---7---------------------------7-7-9-----9-9-7-9---7-----9-----|
G#|--9-9-9-----------9---7-5-------7-7-------7-9-9-------9-7-------------------7-9-|
D#|----------------------------5-7-----5-5-7---------------------------------------|

D#|-----------------------------------------------------------------------------|
A#|-----------------------------------------------------------------------------|
F#|-----------------------------------------------------------------------------|
C#|------------7-7/9------------7-7-9-------7-7-9-------7-7-9-------7-7-9-------|
G#|--5-7-7-5-7--------9-7-5-----------9-7-5-------9-7-5-------9-7-5-------9-7-5-|
D#|---------------------------7-------------------------------------------------|

D#|-----------------------------7----------7---------------------------7-------------------|
A#|-------------7-7-7--------10---10-10-10---7-7/8--8-7-7-8---------10---7-----7-7-7-------|
F#|---------------------------------------------------------9-9-9-7------------------------|
C#|-------------------9-9-9------------------------------------------------9---------9-9-9-|
G#|----------------------------------------------------------------------------------------|
D#|--3/5--7-2-0----------------------------------------------------------------------------|

D#|----7----7-7/9--10-9-12-12-10-12-10-12-14-10-12-17-19-14-12-17-19-14-12-------------|
A#|--7---10------------------------------------------------------------------7-7-7-----|
F#|------------------------------------------------------------------------------------|
C#|--------------------------------------------------------------------------------9-9-|
G#|------------------------------------------------------------------------------------|
D#|------------------------------------------------------------------------------------|

D#|--------7---------------------------------------------7------7-7----7-12----9-9-7-9-14-|
A#|--7-7-7---10-10-10-7-10---------------------7-7-10-10---7--------10------10------------|
F#|------------------------9-7-----9-9-------9---------------9----------------------------|
C#|----------------------------7-9-----7-7-9----------------------------------------------|
G#|---------------------------------------------------------------------------------------|
D#|---------------------------------------------------------------------------------------|

D#|---------------7---------------7-------------7-------------7-------------7-----|
A#|------------10---7-------10-10---7-----10-10---7-----10-10---7-----10-10---7---|
F#|----9-9-7-9--------9-7-7-----------9-7-----------9-7-----------9-7-----------9-|
C#|--9----------------------------------------------------------------------------|
G#|-------------------------------------------------------------------------------|
D#|-------------------------------------------------------------------------------|

D#|-------------------------7-7----------7--------------------------7-------------------|
A#|-------------7-7-7-----------10-10-10---7-8-8-7-7-8-----------10---7-----------------|
F#|----------------------------------------------------9---9-9-7------------------------|
C#|-------------------9-9-9-------------------------------------------------------------|
G#|-------------------------------------------------------------------------9-9-9-------|
D#|--3/5--7-2-0-----------------------------------------------------------7-------7-7-7-|

D#|-------------------------------------7--------7-------------------------------------|
A#|----------------------------7-----10---7---10---7-----------------------------------|
F#|----------6-7-6-9-9-7-9-7-9---7-9--------9--------9---------------------------------|
C#|--9-9-7-9-----------------------------------------------------------9-7-7-7---7-----|
G#|----------------------------------------------------9-9-9-----9-9-9---------9---7-5-|
D#|----------------------------------------------------------7-7-----------------------|

D#|------------------------------------------------------------------------------|
A#|------------------------------------------------------------------------------|
F#|--------------------------------------------9---6-6---------------------------|
C#|------------------------7-7-9-----7-9-9-7-9---7-----9---------------7-9-------|
G#|-------7-7--------7-9-9-------9-7---------------------7-9---7-7-5-7-----9-7-5-|
D#|---5-7-----5-5-7------------------------------------------7-------------------|

D#|-----------------------------------------------------------------|
A#|-----------------------------------------------------------------|
F#|-----------------------------------------------------------------|
C#|----7-7-9-------7-7-9-------7-7-9-------7-7-9--------------------|
G#|--5-------9-7-5-------9-7-5-------9-7-5-------9-7-------------5--|
D#|--------------------------------------------------3/5--7-2-0-(5)-|



************************************

| /    Slide up
| b    Bend
| ~    Vibrato
| (n)  Ghost note
 

************************************

            
            
Suggest correction
Creating personal tab
Creating personal tab
You can edit any tab online and save it as your Personal.

You can edit, replace or remove any tab part or add personal notes – all changes will be seen only by you.

Personal tabs can be accessed anytime from any device, even offline.
Learn more »
Give kudos to tab author, rate the tab!
1 2 3 4 5
comments
print report bad tab
guest
You may want to rate the tab now too:
select rating
Wanna post a correction for this tab? Suggest correction