Oops, an error
Loading. Please wait.

Honey Bee Tab

version 1
version 1

Whole song

11,818 views 1 this week
1 commentread comment
1 2 3 4 5
x 9
add to favorites
launch autoscroll
font size
0
reset
how to read this tab
guitar tuner
Autoscroll
slow
fast
+/-
esc
set tempo
stop
Help us to improve Ultimate-Guitar.com Take our survey!
×
Author
Difficulty
Capo
novice
1st fret
Standard tuning
--> Capo 1st fret

Tweet me @christianenc if you have any trouble!

Chords-

       C      Dm       Am      Em      Em*    Cadd9     F
E--|--(0)--|--(0)---|---0---|--(0)--|--(0)--|--(0)--|--(0)--|
A--|---3---|---0----|---2---|---3---|---2---|---3---|---3---|
D--|---2---|---0----|---2---|---2---|---2---|---2---|---3---|
G--|---0---|---2----|---0---|---0---|---0---|---0---|---2---|
B--|---1---|---3----|---0---|---0---|---1---|---2---|---1---|
e--|--(0)--|---1----|--(0)--|--(0)--|--(0)--|--(0)--|--(0)--|



(Intro)

E--|-----------|----------|-----------|----------|  (3x)
A--|-3---------|-2--------|-0---------|-3--------|
D--|--2--------|--2---2---|--2---2----|--2---2---|
G--|---0-------|---0----0-|---0----0--|---0----0-|
B--|----1--1-1-|----0--0--|----1--1---|----1--1--|
e--|------3-3--|----------|-----------|----------|


                     (Down/Up Strokes)        v ^ v ^
E--|-----------|----------|-----------|---------------|
A--|-3---------|-2--------|-0---------|-3-----3-3-3-3-|
D--|--2--------|--2---2---|--2---2----|--2----2-2-2-2-|
G--|---0-------|---0----0-|---0----0--|---0---0-0-0-0-|
B--|----1--1-1-|----0--0--|----1--1---|----1--1-1-1-1-|
e--|------3-3--|----------|-----------|---------------|

C
You didn't have to look my way
C
Your eyes still haunt me to this day
Dm                    C
But you did. Yes, you did

C
You didn't have to say my name
C
Ignite my circuits and start a flame
Dm
But you did

Am                      Em
Oh, Turpentine erase me whole
          Am                          Em
(Cause I) don't want to live my life alone
         F                          (Let it ring)
(Well I) was waiting for you all my life
Cadd9
Oh
Cmaj7
How I
     (Cool snake noise)
Set me free, my...
      C      Em*     Am      F
Ho-ney-Beeeeeeeeeeeeeeeeeeeeeeeeeee
      C      Em*     Am      F
Ho-ney-Beeeeeeeeeeeeeeeeeeeeeeeeeee

C
You didn't have to smile at me
C
Your grin's the sweetest that I've ever seen
Dm                   C
But you did. Yes you did

C
You didn't have to offer your hand
C
Cause since I've kissed it I am at your command
Dm
But you did

Am                      Em
Oh, Turpentine erase me whole
          Am                    Em
(I don't) want to live my life alone
        F                      (Let it ring)
(I was) waiting for you all my life
Cadd9
Oh
Cmaj7
Why
    
Set me free, my...

      C      Em*     Am      F
Ho-ney-Beeeeeeeeeeeeeeeeeeeeeeeeeee
      C      Em*     Am      F
Ho-ney-Beeeeeeeeeeeeeeeeeeeeeeeeeee


C               
Hello Goodbye, Twas nice to know you
Em
How I find myself without you
Am              F
That I'll never know
Am           F
I let myself go

C
Hello Goodbye, I'm rather crazy
Em
And I never thought I was crazy
Am            F
But what do I know?
Am              F
Now you have to go

      C      Em*     Am      F
Ho-ney-Beeeeeeeeeeeeeeeeeeeeeeeeeee
      C      Em*     Am      F
Ho-ney-Beeeeeeeeeeeeeeeeeeeeeeeeeee


C               
Hello Goodbye, Twas nice to know you
Em
How I find myself without you
Am              F
That I'll never know
Am           F
I let myself go

C
Hello Goodbye, I'm rather crazy
Em
And I never thought I was crazy
Am            F
But what do I know?
Am              F
Now you have to go

      C      Em*     Am      F
Ho-ney-Beeeeeeeeeeeeeeeeeeeeeeeeeee
      C      Em*     Am      F
Ho-ney-Beeeeeeeeeeeeeeeeeeeeeeeeeee


C               
Hello Goodbye, Twas nice to know you
Em
How I find myself without you
Am              F
That I'll never know
Am           F
I let myself go

C
Hello Goodbye, I'm rather crazy
Em
And I never thought I was crazy
Am            F
But what do I know?
Am              F
Now you have to go

      C      Em*     Am      F
Ho-ney-Beeeeeeeeeeeeeeeeeeeeeeeeeee
      C      Em*     Am      F
Ho-ney-Beeeeeeeeeeeeeeeeeeeeeeeeeee

(Acapella Part -- no guitar)

Hello Goodbye, Twas nice to know you
How I find myself without you
Hello Goodbye, I'm rather crazy
And I never thought I was crazy

That I'll never know.
I let myself go.
But what do I know?
Now you have to go.
Suggest correction
comments
print report bad tab
1 comment total.
0 reply
BFMVFL123 10 Aug 31, 2012 10:45 PM

The Dm chord(s) should be an Fm, otherwise it's a 5/5 for me.

guest
You may want to rate the tab now too:
select rating
Wanna post a correction for this tab? Suggest correction