Oops, an error
Loading. Please wait.

The Pulls chords

679 views 6 this week
3 commentsread comments
1 2 3 4 5
x 3
add to favorites
×
Save as Personal and add changes to this tab that will be seen only by you. Learn more ›
×
You can save this tab as Personal to edit and correct it or add notes. All changes will be seen only by you. Learn more »
launch autoscroll
font size
0
reset
transpose
0
reset
simplify chords
display chords
guitar tuner
edit
Autoscroll
slow
fast
+/-
esc
set tempo
stop
Author
Strumming
There is no strumming pattern for this song yet. and get +5 IQ
“The Pulls”
Written by Samuel Luke

Solo thing (played where marked)

e|--12-11-10-8-7-6-5-3--------------------------------------
B|---------------------6-5-3-------3--------3-5-3-----------
G|---------------------------5-4-5---4--4-5-------5---------
D|----------------------------------------------------------
A|----------------------------------------------------------
E|----------------------------------------------------------

e|--12-11-10-8-7-6-5-3--------------------------------------
B|---------------------6-5-3-------3--------3-5-3-----------
G|---------------------------5-4-5---4--4-5-------5---------
D|----------------------------------------------------------
A|----------------------------------------------------------
E|----------------------------------------------------------

e|----------------------------------------------------------
B|--4-3-------3-5-----------6-4-----------------------------
G|------5---5-----5-------5-----6---3-4-5-------------------
D|--------6---------5---5---------6-------6-----------------
A|--------------------7---------------------8-6-8-----------
E|----------------------------------------------------------

e|--------------------------3---3---3-4---------------------
B|----3-4-3-------3-4-5-3-5---5---6-------------------------
G|--5-------5-5-5-------------------------------------------
D|----------------------------------------------------------
A|----------------------------------------------------------
E|----------------------------------------------------------


G G 
(make the second G chord a bar 3 G)

Em
Gravity 

it makes no sense to me
        Am
but it pulls me 
        Em
just like you do

Em
The higher I am

the harder into ground I will slam
        Am
it will kill me
        Em
it’ll be messy

Dm
Here I am
Fm              C          G
planted on the ground and waiting
G                      G#
waiting for it to pull me

(Play the Solo thing here or the chords below)

C  C7M  C  C7M 
G# C G# C G# C G#

Em
If my logic isn’t sound

what’s keeping our feet on the ground?
   Am
An equation (F=GMm/(r^2))
   Em
or special occasion

Em
Don’t get me wrong

I’d rather be up in the clouds
        Am
but I’d worry
        Em
about coming down

Dm
Here we are
        Fm      C
feeling worlds apart
    G
yet sharing
    G           G#
the pull of gravity

      C         G#
Is it wrong
      C         G#
is it wrong
             C      G#
to be pulled along
      C    G#
by a song

Em
By now

I should have it all figured out
           Am
but you’ve pulled my 
            Em
outer space apart

Em
If Gravity is embrace

and time the love we chase
        Am
well my darling
              Em
you must be a star

Dm
Here I am
  Fm        C           G
a meteoric stance as I give in
               C
into the pulls
Suggest correction
Creating personal tab
Creating personal tab
You can edit any tab online and save it as your Personal.

You can edit, replace or remove any tab part or add personal notes – all changes will be seen only by you.

Personal tabs can be accessed anytime from any device, even offline.
Learn more »
Give kudos to tab author, rate the tab!
1 2 3 4 5
comments
print report bad tab
3 comments total.
0 reply
Chewiekiteguy 10 Feb 15, 2016 08:36 AM

thanks for this! If I'm not mistaken, in live shows, Sam plays the little interlude part where the C CM7 all the way until the lyrics start up again. Is it possible if you could write out a tab of that part?

0 reply
jettriffin 478 Mar 12, 2016 04:37 AM

i've been waiting for someone to put up chords for this song. thank you!

guest
You may want to rate the tab now too:
select rating
Wanna post a correction for this tab? Suggest correction