Oops, an error
Loading. Please wait.

The Space Giant chords

421 views 1 this week
2 commentsread comments
1 2 3 4 5
x 4
add to favorites
×
Save as Personal and add changes to this tab that will be seen only by you. Learn more ›
×
You can save this tab as Personal to edit and correct it or add notes. All changes will be seen only by you. Learn more »
launch autoscroll
font size
0
reset
transpose
0
reset
simplify chords
display chords
guitar tuner
edit
Autoscroll
slow
fast
+/-
esc
set tempo
stop
Author
Strumming
There is no strumming pattern for this song yet. and get +5 IQ
"The Space Giant"
Written by Samuel Luke



This is the bass line repeated throughout the song.
Sometimes it repeats before the last note

e|-------------------------------------
B|-------------------------------------
G|-------------------------------------
D|-------------------------------------
A|-----2---2---2---2---2---2-----------
E|---0---3---0---3---0---3-------0-----

Riff #1
e|-------------------------------------
B|-------------------------------------
G|-------------------------------------
D|--2--1-------------------------------
A|--------3--2-----2-----2-------------
E|--------------3-----2-----0----------

Solo                                                                  
e|------------------0---0---2--0--2--3--3--5--3--2--2h3p2---0--2--5--3--7-7-8-7--5-
B|--1--3--1--3---3---3------------------------------------3------------------------
G|---------------------------------------------------------------------------------
D|---------------------------------------------------------------------------------
A|---------------------------------------------------------------------------------
E|---------------------------------------------------------------------------------
                                                                       
e|-----0--3--0--3--5--7--3-----0--3--0--3--0---------------------------------------
B|--3-----------------------3------------------3--1--0--1--0---------1--0----------
G|------------------------------------------------------------2--2------------0----
D|-------------------------------------------------------------------------4-------
A|---------------------------------------------------------------------------------
E|---------------------------------------------------------------------------------

Em (or bass line) through the aaaahs

 
e|--3--0-----5--0-----3--0-----5--0-----3--0----3--0-----5--0-----3--0-6s7--7--7---
B|--------3--------3--------3--------3----------------3--------3-------------------
G|---------------------------------------------------------------------------------
D|---------------------------------------------------------------------------------
A|---------------------------------------------------------------------------------
E|---------------------------------------------------------------------------------

e|---9--5--0--10--5--0--9--5--0--10--5--8--9--5----9--5--0--10--5--8--9--10--12----
B|---------------------------------------------------------------------------------
G|---------------------------------------------------------------------------------
D|---------------------------------------------------------------------------------
A|---------------------------------------------------------------------------------
E|---------------------------------------------------------------------------------

e|-----------------------------0-----0----2-----3-----3---5---6---7----------------
B|-----------0--------0--1--0----0-----0-----0-----0----0---0---0------------------
G|--3--0--3-----3--0----------0----0-----------0-----0-----------------------------
D|---------------------------------------------------------------------------------
A|---------------------------------------------------------------------------------
E|---------------------------------------------------------------------------------

e|--0-------0-------2-------2-------3-------3-------5-6-5-6---7--------------------
B|----3---3---3---3---3---3---3---3---3---3---3---3--------------------------------
G|------5-------5-------5-------5-------5-------5----------------------------------
D|---------------------------------------------------------------------------------
A|---------------------------------------------------------------------------------
E|---------------------------------------------------------------------------------



        G     Em     Am         Em
In the marshlands, a spaceman lands,
G             Em         Am        Em
pleading his demands, to the robot band


Riff #1

      Em
Rav: “Please hear my plight, 
                  C
to save the green apple in the sky, 
                C#dim/E         
from the space giant’s appetite, 
        G       D
for depraved delights.

           Em
He followed W.I.N.K. the satellite, 
                    C
W.I.N.K.’s trail of blue matter bright, 
                   C#dim/E
the giant’s got a one-track mind, 
        G                       D            Em
and will eat everything just to find the robot band.”



C           G                   D          Em
What'll you say, when asked to saved the day, 
                C     G     D
what would you do to save a world?
     C        G               D      Em
Over bleak horizons and under dark conditions 
         C         G      D
let the robot band do the work



Em (or bass line)
And so it was, Steam Powered Giraffe set about to confront the Space Giant


      C    G      D    Em     C    G          D  
The robot band started work, to meticulously convert
C               G       D        Em     C      G                D       Em
W.I.N.K. the SteamJunk from the sky, into a functional transport device

        Em
Spine: Rabbit are you ready?
        C
Rabbit: Oh, you bet your butt I’m ready.
         C#dim/E
Spine: Hatchworth are you ready?
             G                             D
Hatchworth: Yes, but I’m not certain what for.

C               G               D      Em
Launched into space to save the human race 
             C      G      D
and the green apple in the sky
     C               G             D      Em
Ride W.I.N.K. the Satellite into endless night, 
   C        G      D
at speeds of near light

     C       G             D       Em
The journey long, the destination nigh, 
          C     G      D
the green apple planet-sized
     C          G      D          Em    
And missing a bite, alone in the night, 
        C          G        D
W.I.N.K. shuddered with delight

        G        Em         Am                Em
In the Vice Quadrant, there loomed the Space Giant, 
        G        Em           Am        Em
it’s grin the horizon, it had found the band

        Em                              C
SG: “Finally you’ve come, the parallel universe I’m from
                C#dim/E                     G      D
Steam Powered Giraffe is done, they left a hole in me
             Em                             C
So I’ve come all this way, all the while my appetite could not be sate
           C#dim/E          G     D
so I want one last show, before I go.”

Em (or bass line)
But first, the Space Giant needed proof that this truly was Steam Powered Giraffe, 
so it proposed a duel and revealed a guitar made out of the cosmos. 
The ensuing duel would come to be known as the most awesome 
duel in all the universe.

(Play the solo here)

Em (or bass line) through the aaaahs in the middle of the solo


        G          D      Em
La doom da da doom da da da
        G          Am     Em
La doom da da doom da da da
        G          D      Em
La doom da da doom da da da
        D   Em 
La doom daaaaaaaa
Em
Leedeedeedeedeedeedeedee


Em (or bass line)
The duel ended. The Space Giant streamed tears like waterfalls under 
the green apple sky, healing her, and giving her a salty ocean. 
During the course of Steam Powered Giraffe’s impromptu performance, the 
Space Giant shrunk down into the Space Miniscule, and then into Nothing At All.
The robots and W.I.N.K. returned to Earth. There, W.I.N.K. spoke his final words.


        C          G            D      Em
“My friends return home, I must journey alone, 
          C        G      D
to the green apple in the sky,
              C            G                 D     Em
If there’s a thing called love, it waits for me above,
     C        G      D
it’s time for goodbyes.”

        C          G            D      Em
W.I.N.K. your bravery, will not be forgotten, 
      C        G      D
your love will not be lost
    C            G              D     Em
The Space Giant gone, Earth’s peace prolonged, 
     C     G      D              Em
humanity carries on… at least for now

            
            
Suggest correction
Creating personal tab
Creating personal tab
You can edit any tab online and save it as your Personal.

You can edit, replace or remove any tab part or add personal notes – all changes will be seen only by you.

Personal tabs can be accessed anytime from any device, even offline.
Learn more »
comments
print report bad tab
2 comments total.
0 reply
CMkaiju 177 Feb 10, 2016 05:01 PM

Thank you SO much for doing this! Is it possible if you could do The Pulls?

0 reply
captinwakajack 47 Aug 25, 2016 05:56 PM

Great Job!!!

guest
You may want to rate the tab now too:
select rating
Wanna post a correction for this tab? Suggest correction