Oops, an error
Loading. Please wait.

The Beast Tab

287 views 1 this week
1 commentread comment
1 2 3 4 5
2 more votes to show rating
add to favorites
launch autoscroll
font size
0
reset
how to read this tab
guitar tuner
Autoscroll
slow
fast
+/-
esc
set tempo
stop
Help us to improve Ultimate-Guitar.com Take our survey!
×
Artist: Steel Attack
Title:  The Beast
Album:  Fall Into Madness
Transcribed by Roger H. Beck (July 13, 2001)
e-mail address: roger_h_beck@hotmail.com


Standard tuning


Theme 1
Main Riff (2x)

e(-----7-7-5--8-7-5-----7-5-7--8-7-5-----7-5-7--8-7-5-7--8-7-5-7-575-----|
B(---8-8-8-7-10-8-7-7-8-8-7-8-10-8-7-7-8-8-7-8-10-8-7-8-10-8-7-8-787-8-7-|
G(---9--------------7-9--------------7-9-----------------------------9-7-|
D(-----------------------------------------------------------------------|
A(-----------------------------------------------------------------------|
E(-----------------------------------------------------------------------|

e(-----7-7-5--8-7-5-----7-5-7--8-7-5---7-5-----5-7-5=---5---)
B(---8-8-8-7-10-8-7-7-8-8-7-8-10-8-7-7-8-7-8-8-7-8-7=-8-7---)
G(---9--------------7-9--------------7-----9-9--------9-----)
D(----------------------------------------------------------)
A(----------------------------------------------------------)
E(----------------------------------------------------------)


Verse 1
Riff 1 (4x)

e(--------------------------------------------------------)
B(--------------------------------------------------------)
G(---9-----9---11---9-----9---9---7---5--5--/7--7--7--7---)
D(---9-----9---11---9-----9---9---7---5--5--/7--7--7--7---)
A(---7-----7----9---7-----7---7---5---3--3--/5--5--5--5---)
E(-----0-0---0----0---0-0---0---0---0---------------------)
P.M.   . .   .    .   . .   .   .   .


Pre-Chorus 1
Riff 2a (3x)

e(----------------------------------------------------------------)
B(----------------------------------------------------------------)
G(---5-----------2-----4--4---------------------------------------)
D(---5-----------2-----4--4--10-5-5--9-5-5-7-5-5--9-5-5-10-5--9-5-)
A(---3-3-3-3-3-3-0-0-0-2--2--12-7-7-10-7-7-9-7-7-10-7-7--9-7-10-7-)
E(----------------------------------------------------------------)
P.M.   . . . . .   . .          . .    . .   . .    . .    .    .

Riff 2b (1x)

e(---------------------------------------------)
B(---------------------------------------------)
G(---5-----------2-----4--4--/5------------7---)
D(---5-----------2-----4--4--/5------------7---)
A(---3-3-3-3-3-3-0-0-0-2--2--/3-3-3-3-3-3-/5---)
E(---------------------------------------------)
P.M.   . . . . .   . .          . . . . .


Chorus 1
Riff 3 (2x)

e(---------------------------------------------------------------------|
B(---------------------------------------------------------------------|
G(---------------------------------------------------------------7--7--|
D(---------------------------------------------------------------7--7--|
A(---7-----10-----9-----10-----9---5---7-----10-----9-----10-----5--5--|
E(-----0-0----0-0---0-0----0-0---0---0---0-0----0-0---0-0----0-0-------|
P.M.   . .    . .   . .    . .   .   .   . .    . .   . .    . .


e(---------------------------------------------------)
B(---------------------------------------------------)
G(---------------------------------------------------)
D(--------------------------------------5===-/7===---)
A(---7-----10-----9-----10-----9---5-------7-/9===---)
E(-----0-0----0-0---0-0----0-0---0---0---------------)
P.M.   . .    . .   . .    . .   .   .


Theme 2      - Main Riff (2x)
Verse 2      - Riff 1    (4x)
Pre-Chorus 2 - Riff 2a   (3x)
               Riff 2b   (1x)
Chorus 2     - Riff 3    (2x)


Guitar Solo
Riff 4 (2x)

e(---------------------------------------------------------------------|
B(---------------------------------------------------------------------|
G(----------------4--4-4--4-4---------------4--4-4--4-4--/5--5-5--5-5--|
D(---2--2-2--2-2--4--4-4--4-4--2--2-2--2-2--4--4-4--4-4--/5--5-5--5-5--|
A(---2--2-2--2-2--2--2-2--2-2--2--2-2--2-2--2--2-2--2-2--/3--3-3--3-3--|
E(---0--0-0--0-0---------------0--0-0--0-0-----------------------------|


e(--------------------------------------------------)
B(--------------------------------------------------)
G(---2--2-2--2-2------------------------------------)
D(---2--2-2--2-2------------------------------------)
A(---0--0-0--0-0--2-0-2-3-2-0-2-0-2-0-2-3-2-0-2-0---)
E(--------------------------------------------------)
P.M.              . . . . . . . . . . . . . . . .


Riff 5a (4x)

e(-------------------------------------)
B(-------------------------------------)
G(-------------------------------------)
D(-------------------------------------)
A(-------------------------------------)
E(---2-0-2-3-2-0-2-0-2-3-2-0-5-3-2-0---)
P.M. . . . . . . . . . . . . . . . .


Riff 5b (2x)

e(-------------------------------------)
B(-------------------------------------)
G(-------------------------------------)
D(-------------------------------------)
A(---2-0-2-3-2-0-2-0-2-3-2-0-5-3-2-0---)
E(-------------------------------------)
P.M. . . . . . . . . . . . . . . . .


Riff 5a (2x)


Interlude
Riff 6 (4x)

e(--------------------------------------------------|
B(-----12-10-12---12-10-12-----15-13-15----15-13-15-|
G(---9----------9----------/12----------12----------|
D(--------------------------------------------------|
A(--------------------------------------------------|
E(--------------------------------------------------|

e(-------------------------------------------)
B(------10-8-10---10-8-10----8-7-------7-8---)
G(---/7---------7----------9-----9-8-9-------)
D(-------------------------------------------)
A(-------------------------------------------)
E(-------------------------------------------)

Guitar 2 (3rd and 4th time only)
e(--------------------------------------------|
B(--------------------------------------------|
G(--------------------------------------------|
D(-----9-7-9---9-7-9-----12-10-12----12-10-12-|
A(---7-------7-------/10----------10----------|
E(--------------------------------------------|

e(-----------------------7-5-------5-7---)
B(---------------------8-----8-7-8-------)
G(---------------------------------------)
D(------7-5-7---7-5-7--------------------)
A(---/5-------5--------------------------)
E(---------------------------------------)


Bridge 1
Riff 7a                                      Riff 7b

e(---------------------------------------)--------------------|
B(---------------------------------------)--------------------|
G(---9-9--9--/3-3--3--/9-9--9--/3-3--3---)---9-9--9-9--9-9-9--|
D(---9-9--9--/3-3--3--/9-9--9--/3-3--3---)---9-9--9-9--9-9-9--|
A(---7-7--7--/1-1--1--/7-7--7--/1-1--1---)---7-7--7-7--7-7-7--|
E(---------------------------------------)--------------------|
P.M.                                         . .  . .  . . .

e(------------------------------------------------------------)
B(------------------------------------------------------------)
G(---/3-3--3-3--3-3-3--/9-9--9-9--9-9-9--/3-3--3-3--3-3-/7=---)
D(---/3-3--3-3--3-3-3--/9-9--9-9--9-9-9--/3-3--3-3--3-3-/7=---)
A(---/1-1--1-1--1-1-1--/7-7--7-7--7-7-7--/1-1--1-1--1-1-/5=---)
E(------------------------------------------------------------)
P.M.  . .  . .  . . .   . .  . .  . . .   . .  . .  . .


Bridge 2
Riff 8 (2x)
                                                                   1st  2nd
e(----------------------------------------------------------------)----)----)
B(----------------------------------------------------------------)----)----)
G(----------------------------------------------------------------)----)-7=-)
D(----------------------------------------------------------------)----)-7=-)
A(-------10---10---9---9---7---7---5=-----10---10---9---10---12---)-9=-)-5=-)
E(---0-0----0----0---0---0---0---0----0-0----0----0---0----0----0-)----)----)
P.M. . .    .    .   .   .   .   .    . .    .    .   .    .    .


Chorus 3 - Riff 3 (4x)


e(-------)
B(-------)
G(-------)
D(---2---)
A(---2---)
E(---0---)

Symbol explanation:


P.M.  Palm Mute (notes marked with dot)
/     slide
=     sustained


Note: If you find any mistakes please send e-mail
Suggest correction
Give kudos to tab author, rate the tab!
1 2 3 4 5
comments
print report bad tab
1 comment total.
0 reply
Toomzi 20 Aug 29, 2013 01:44 PM

Good job! 5 stars!

guest
You may want to rate the tab now too:
select rating
Wanna post a correction for this tab? Suggest correction